  0
SECTION
  2
HEADER
  9
$ACADVER
  1
AC1018
  9
$ACADMAINTVER
 70
     0
  9
$DWGCODEPAGE
  3
ANSI_1252
  9
$TITLE
  1

  9
$SUBJECT
  1

  9
$AUTHOR
  1

  9
$KEYWORDS
  1

  9
$COMMENTS
  1

  9
$LASTSAVEDBY
  1

  9
$REVISIONNUMBER
  1

  9
$INSBASE
 10
0.0
 20
0.0
 30
0.0
  9
$EXTMIN
 10
466358.8475
 20
6529457.839650894
 30
0.0
  9
$EXTMAX
 10
466950.8707000001
 20
6530210.059196812
 30
4.0
  9
$LIMMIN
 10
0.0
 20
0.0
  9
$LIMMAX
 10
12.0
 20
9.0
  9
$ORTHOMODE
 70
     0
  9
$REGENMODE
 70
     1
  9
$FILLMODE
 70
     1
  9
$QTEXTMODE
 70
     0
  9
$MIRRTEXT
 70
     1
  9
$LTSCALE
 40
1.0
  9
$ATTMODE
 70
     1
  9
$TEXTSIZE
 40
0.2
  9
$TRACEWID
 40
0.05
  9
$TEXTSTYLE
  7
KOORD
  9
$CLAYER
  8
EHITISED
  9
$CELTYPE
  6
CONTINUOUS
  9
$CECOLOR
 62
   256
  9
$CELTSCALE
 40
1.0
  9
$DISPSILH
 70
     0
  9
$DIMSCALE
 40
1.0
  9
$DIMASZ
 40
0.18
  9
$DIMEXO
 40
0.0625
  9
$DIMDLI
 40
0.38
  9
$DIMRND
 40
0.0
  9
$DIMDLE
 40
0.0
  9
$DIMEXE
 40
0.18
  9
$DIMTP
 40
0.0
  9
$DIMTM
 40
0.0
  9
$DIMTXT
 40
0.18
  9
$DIMCEN
 40
0.09
  9
$DIMTSZ
 40
0.0
  9
$DIMTOL
 70
     0
  9
$DIMLIM
 70
     0
  9
$DIMTIH
 70
     1
  9
$DIMTOH
 70
     1
  9
$DIMSE1
 70
     0
  9
$DIMSE2
 70
     0
  9
$DIMTAD
 70
     0
  9
$DIMZIN
 70
     0
  9
$DIMBLK
  1

  9
$DIMASO
 70
     1
  9
$DIMSHO
 70
     1
  9
$DIMPOST
  1

  9
$DIMAPOST
  1

  9
$DIMALT
 70
     0
  9
$DIMALTD
 70
     2
  9
$DIMALTF
 40
25.4
  9
$DIMLFAC
 40
1.0
  9
$DIMTOFL
 70
     0
  9
$DIMTVP
 40
0.0
  9
$DIMTIX
 70
     0
  9
$DIMSOXD
 70
     0
  9
$DIMSAH
 70
     0
  9
$DIMBLK1
  1

  9
$DIMBLK2
  1

  9
$DIMSTYLE
  2
STANDARD
  9
$DIMCLRD
 70
     0
  9
$DIMCLRE
 70
     0
  9
$DIMCLRT
 70
     0
  9
$DIMTFAC
 40
1.0
  9
$DIMGAP
 40
0.09
  9
$DIMJUST
 70
     0
  9
$DIMSD1
 70
     0
  9
$DIMSD2
 70
     0
  9
$DIMTOLJ
 70
     1
  9
$DIMTZIN
 70
     0
  9
$DIMALTZ
 70
     0
  9
$DIMALTTZ
 70
     0
  9
$DIMUPT
 70
     0
  9
$DIMDEC
 70
     4
  9
$DIMTDEC
 70
     4
  9
$DIMALTU
 70
     2
  9
$DIMALTTD
 70
     2
  9
$DIMTXSTY
  7
STANDARD
  9
$DIMAUNIT
 70
     0
  9
$DIMADEC
 70
     0
  9
$DIMALTRND
 40
0.0
  9
$DIMAZIN
 70
     0
  9
$DIMDSEP
 70
    46
  9
$DIMATFIT
 70
     3
  9
$DIMFRAC
 70
     0
  9
$DIMLDRBLK
  1

  9
$DIMLUNIT
 70
     2
  9
$DIMLWD
 70
    -2
  9
$DIMLWE
 70
    -2
  9
$DIMTMOVE
 70
     0
  9
$LUNITS
 70
     2
  9
$LUPREC
 70
     4
  9
$SKETCHINC
 40
0.1
  9
$FILLETRAD
 40
0.0
  9
$AUNITS
 70
     0
  9
$AUPREC
 70
     0
  9
$MENU
  1
.
  9
$ELEVATION
 40
0.0
  9
$PELEVATION
 40
0.0
  9
$THICKNESS
 40
0.0
  9
$LIMCHECK
 70
     0
  9
$CHAMFERA
 40
0.0
  9
$CHAMFERB
 40
0.0
  9
$CHAMFERC
 40
0.0
  9
$CHAMFERD
 40
0.0
  9
$SKPOLY
 70
     0
  9
$TDCREATE
 40
2444972.376198947
  9
$TDUCREATE
 40
2444972.251198947
  9
$TDUPDATE
 40
2456749.277096331
  9
$TDUUPDATE
 40
2456749.152096331
  9
$TDINDWG
 40
1.1141510995
  9
$TDUSRTIMER
 40
1.1141502662
  9
$USRTIMER
 70
     1
  9
$ANGBASE
 50
0.0
  9
$ANGDIR
 70
     0
  9
$PDMODE
 70
     0
  9
$PDSIZE
 40
0.0
  9
$PLINEWID
 40
0.0
  9
$SPLFRAME
 70
     0
  9
$SPLINETYPE
 70
     6
  9
$SPLINESEGS
 70
     8
  9
$HANDSEED
  5
144
  9
$SURFTAB1
 70
     6
  9
$SURFTAB2
 70
     6
  9
$SURFTYPE
 70
     6
  9
$SURFU
 70
     6
  9
$SURFV
 70
     6
  9
$UCSBASE
  2

  9
$UCSNAME
  2

  9
$UCSORG
 10
0.0
 20
0.0
 30
0.0
  9
$UCSXDIR
 10
1.0
 20
0.0
 30
0.0
  9
$UCSYDIR
 10
0.0
 20
1.0
 30
0.0
  9
$UCSORTHOREF
  2

  9
$UCSORTHOVIEW
 70
     0
  9
$UCSORGTOP
 10
0.0
 20
0.0
 30
0.0
  9
$UCSORGBOTTOM
 10
0.0
 20
0.0
 30
0.0
  9
$UCSORGLEFT
 10
0.0
 20
0.0
 30
0.0
  9
$UCSORGRIGHT
 10
0.0
 20
0.0
 30
0.0
  9
$UCSORGFRONT
 10
0.0
 20
0.0
 30
0.0
  9
$UCSORGBACK
 10
0.0
 20
0.0
 30
0.0
  9
$PUCSBASE
  2

  9
$PUCSNAME
  2

  9
$PUCSORG
 10
0.0
 20
0.0
 30
0.0
  9
$PUCSXDIR
 10
1.0
 20
0.0
 30
0.0
  9
$PUCSYDIR
 10
0.0
 20
1.0
 30
0.0
  9
$PUCSORTHOREF
  2

  9
$PUCSORTHOVIEW
 70
     0
  9
$PUCSORGTOP
 10
0.0
 20
0.0
 30
0.0
  9
$PUCSORGBOTTOM
 10
0.0
 20
0.0
 30
0.0
  9
$PUCSORGLEFT
 10
0.0
 20
0.0
 30
0.0
  9
$PUCSORGRIGHT
 10
0.0
 20
0.0
 30
0.0
  9
$PUCSORGFRONT
 10
0.0
 20
0.0
 30
0.0
  9
$PUCSORGBACK
 10
0.0
 20
0.0
 30
0.0
  9
$USERI1
 70
     1
  9
$USERI2
 70
     1
  9
$USERI3
 70
     0
  9
$USERI4
 70
     0
  9
$USERI5
 70
     0
  9
$USERR1
 40
1.0
  9
$USERR2
 40
0.0
  9
$USERR3
 40
0.0
  9
$USERR4
 40
0.0
  9
$USERR5
 40
0.0
  9
$WORLDVIEW
 70
     1
  9
$SHADEDGE
 70
     3
  9
$SHADEDIF
 70
    70
  9
$TILEMODE
 70
     1
  9
$MAXACTVP
 70
    48
  9
$PINSBASE
 10
0.0
 20
0.0
 30
0.0
  9
$PLIMCHECK
 70
     0
  9
$PEXTMIN
 10
1.000000000000000E+20
 20
1.000000000000000E+20
 30
1.000000000000000E+20
  9
$PEXTMAX
 10
-1.000000000000000E+20
 20
-1.000000000000000E+20
 30
-1.000000000000000E+20
  9
$PLIMMIN
 10
0.0
 20
0.0
  9
$PLIMMAX
 10
12.0
 20
9.0
  9
$UNITMODE
 70
     0
  9
$VISRETAIN
 70
     1
  9
$PLINEGEN
 70
     0
  9
$PSLTSCALE
 70
     1
  9
$TREEDEPTH
 70
  3020
  9
$CMLSTYLE
  2
STANDARD
  9
$CMLJUST
 70
     0
  9
$CMLSCALE
 40
1.0
  9
$PROXYGRAPHICS
 70
     1
  9
$MEASUREMENT
 70
     0
  9
$CELWEIGHT
370
    -1
  9
$ENDCAPS
280
     0
  9
$JOINSTYLE
280
     0
  9
$LWDISPLAY
290
     0
  9
$INSUNITS
 70
     0
  9
$HYPERLINKBASE
  1

  9
$STYLESHEET
  1

  9
$XEDIT
290
     1
  9
$CEPSNTYPE
380
     0
  9
$PSTYLEMODE
290
     1
  9
$FINGERPRINTGUID
  2
{36BBE681-D199-40AB-85C6-32B4B5D38111}
  9
$VERSIONGUID
  2
{CCB1DA79-2051-474C-AD35-3EFFF8B2B45A}
  9
$EXTNAMES
290
     1
  9
$PSVPSCALE
 40
0.0
  9
$OLESTARTUP
290
     0
  9
$SORTENTS
280
   127
  9
$INDEXCTL
280
     0
  9
$HIDETEXT
280
     1
  9
$XCLIPFRAME
290
     0
  9
$HALOGAP
280
     0
  9
$OBSCOLOR
 70
   257
  9
$OBSLTYPE
280
     0
  9
$INTERSECTIONDISPLAY
280
     0
  9
$INTERSECTIONCOLOR
 70
   257
  9
$DIMASSOC
280
     1
  9
$PROJECTNAME
  1

  0
ENDSEC
  0
SECTION
  2
CLASSES
  0
CLASS
  1
ACDBDICTIONARYWDFLT
  2
AcDbDictionaryWithDefault
  3
ObjectDBX Classes
 90
        0
 91
        1
280
     0
281
     0
  0
CLASS
  1
DICTIONARYVAR
  2
AcDbDictionaryVar
  3
ObjectDBX Classes
 90
        0
 91
        3
280
     0
281
     0
  0
CLASS
  1
SORTENTSTABLE
  2
AcDbSortentsTable
  3
ObjectDBX Classes
 90
        0
 91
        1
280
     0
281
     0
  0
CLASS
  1
IDBUFFER
  2
AcDbIdBuffer
  3
ObjectDBX Classes
 90
        0
 91
        0
280
     0
281
     0
  0
CLASS
  1
RASTERVARIABLES
  2
AcDbRasterVariables
  3
ISM
 90
        0
 91
        0
280
     0
281
     0
  0
CLASS
  1
IMAGEDEF
  2
AcDbRasterImageDef
  3
ISM
 90
        0
 91
        0
280
     0
281
     0
  0
CLASS
  1
IMAGEDEF_REACTOR
  2
AcDbRasterImageDefReactor
  3
ISM
 90
        1
 91
        0
280
     0
281
     0
  0
CLASS
  1
IMAGE
  2
AcDbRasterImage
  3
ISM
 90
      127
 91
        0
280
     0
281
     1
  0
ENDSEC
  0
SECTION
  2
TABLES
  0
TABLE
  2
VPORT
  5
23
330
0
100
AcDbSymbolTable
 70
     2
  0
VPORT
  5
143
330
23
100
AcDbSymbolTableRecord
100
AcDbViewportTableRecord
  2
*Active
 70
     0
 10
0.0
 20
0.0
 11
1.0
 21
1.0
 12
410284.2901491896
 22
6533618.060908269
 13
0.0
 23
0.0
 14
1.0
 24
1.0
 15
0.0
 25
0.0
 16
0.0
 26
0.0
 36
1.0
 17
0.0
 27
0.0
 37
0.0
 40
764.8990943906828
 41
2.288107202680067
 42
50.0
 43
0.0
 44
0.0
 50
0.0
 51
0.4944750653364577
 71
     0
 72
   100
 73
     1
 74
     1
 75
     0
 76
     0
 77
     0
 78
     0
281
     0
 65
     1
110
0.0
120
0.0
130
0.0
111
1.0
121
0.0
131
0.0
112
0.0
122
1.0
132
0.0
 79
     0
146
0.0
  0
ENDTAB
  0
TABLE
  2
LTYPE
  5
1E
330
0
100
AcDbSymbolTable
 70
     5
  0
LTYPE
  5
1F
330
1E
100
AcDbSymbolTableRecord
100
AcDbLinetypeTableRecord
  2
BYBLOCK
 70
     0
  3

 72
    65
 73
     0
 40
0.0
  0
LTYPE
  5
20
330
1E
100
AcDbSymbolTableRecord
100
AcDbLinetypeTableRecord
  2
BYLAYER
 70
     0
  3

 72
    65
 73
     0
 40
0.0
  0
LTYPE
  5
C
330
1E
100
AcDbSymbolTableRecord
100
AcDbLinetypeTableRecord
  2
CONTINUOUS
 70
     0
  3
Solid line
 72
    65
 73
     0
 40
0.0
  0
LTYPE
  5
3E
330
1E
100
AcDbSymbolTableRecord
100
AcDbLinetypeTableRecord
  2
ACAD_ISO03W100
 70
     0
  3
ISO dash space __    __    __    __    __    __
 72
    65
 73
     2
 40
30.0
 49
12.0
 74
     0
 49
-18.0
 74
     0
  0
ENDTAB
  0
TABLE
  2
LAYER
  5
17
102
{ACAD_XDICTIONARY
360
18
102
}
330
0
100
AcDbSymbolTable
 70
     8
  0
LAYER
  5
7
330
17
100
AcDbSymbolTableRecord
100
AcDbLayerTableRecord
  2
0
 70
     0
 62
    -7
  6
CONTINUOUS
370
    -3
390
8
1001
RAK
1000
{ACET-LAYISO
1070
     0
1070
     7
1000
CONTINUOUS
1071
       -3
1071
        1
1005
8
1000
ACET-LAYISO}
  0
LAYER
  5
2E
330
17
100
AcDbSymbolTableRecord
100
AcDbLayerTableRecord
  2
EHITISED
 70
     0
 62
     5
  6
CONTINUOUS
370
    -3
390
8
1001
RAK
1000
{ACET-LAYISO
1070
     0
1070
     5
1000
CONTINUOUS
1071
       -3
1071
        1
1005
8
1000
ACET-LAYISO}
  0
LAYER
  5
10F
102
{ACAD_XDICTIONARY
360
110
102
}
330
17
100
AcDbSymbolTableRecord
100
AcDbLayerTableRecord
  2
EI PRINDI
 70
     0
 62
   252
  6
CONTINUOUS
290
     0
370
    -3
390
8
1001
AcAecLayerStandard
1000

1000

1001
RAK
1000
{ACET-LAYISO
1070
     0
1070
   252
1000
Continuous
1071
       -3
1071
        0
1005
8
1000
ACET-LAYISO}
  0
ENDTAB
  0
TABLE
  2
STYLE
  5
1B
330
0
100
AcDbSymbolTable
 70
     3
  0
STYLE
  5
1C
330
1B
100
AcDbSymbolTableRecord
100
AcDbTextStyleTableRecord
  2
STANDARD
 70
     0
 40
0.0
 41
1.0
 50
0.0
 71
     0
 42
0.2
  3
txt
  4

  0
STYLE
  5
2F
330
1B
100
AcDbSymbolTableRecord
100
AcDbTextStyleTableRecord
  2
KOORD
 70
     0
 40
0.2
 41
1.0
 50
0.0
 71
     0
 42
0.2
  3
arialbi.ttf
  4

1001
ACAD
1000
Arial
1071
 50331682
  0
ENDTAB
  0
TABLE
  2
VIEW
  5
21
330
0
100
AcDbSymbolTable
 70
     0
  0
ENDTAB
  0
TABLE
  2
UCS
  5
22
330
0
100
AcDbSymbolTable
 70
     0
  0
ENDTAB
  0
TABLE
  2
APPID
  5
25
330
0
100
AcDbSymbolTable
 70
     6
  0
APPID
  5
26
330
25
100
AcDbSymbolTableRecord
100
AcDbRegAppTableRecord
  2
ACAD
 70
     0
  0
APPID
  5
D
330
25
100
AcDbSymbolTableRecord
100
AcDbRegAppTableRecord
  2
RAK
 70
     0
  0
APPID
  5
B
330
25
100
AcDbSymbolTableRecord
100
AcDbRegAppTableRecord
  2
ADE
 70
     0
  0
APPID
  5
38
330
25
100
AcDbSymbolTableRecord
100
AcDbRegAppTableRecord
  2
MStation
 70
     0
  0
APPID
  5
111
330
25
100
AcDbSymbolTableRecord
100
AcDbRegAppTableRecord
  2
AcAecLayerStandard
 70
     0
  0
APPID
  5
112
330
25
100
AcDbSymbolTableRecord
100
AcDbRegAppTableRecord
  2
AcCmTransparency
 70
     0
  0
ENDTAB
  0
TABLE
  2
DIMSTYLE
  5
27
330
0
100
AcDbSymbolTable
 70
     2
100
AcDbDimStyleTable
 71
     0
  0
DIMSTYLE
105
31
330
27
100
AcDbSymbolTableRecord
100
AcDbDimStyleTableRecord
  2
STANDARD
 70
     0
340
1C
  0
ENDTAB
  0
TABLE
  2
BLOCK_RECORD
  5
1
330
0
100
AcDbSymbolTable
 70
     0
  0
BLOCK_RECORD
  5
2
102
{ACAD_XDICTIONARY
360
3
102
}
330
1
100
AcDbSymbolTableRecord
100
AcDbBlockTableRecord
  2
*MODEL_SPACE
340
F
  0
BLOCK_RECORD
  5
11
102
{ACAD_XDICTIONARY
360
12
102
}
330
1
100
AcDbSymbolTableRecord
100
AcDbBlockTableRecord
  2
*PAPER_SPACE
340
16
  0
ENDTAB
  0
ENDSEC
  0
SECTION
  2
BLOCKS
  0
BLOCK
  5
6
330
2
100
AcDbEntity
  8
0
100
AcDbBlockBegin
  2
*MODEL_SPACE
 70
     0
 10
0.0
 20
0.0
 30
0.0
  3
*MODEL_SPACE
  1

  0
ENDBLK
  5
E
330
2
100
AcDbEntity
  8
0
100
AcDbBlockEnd
  0
BLOCK
  5
14
330
11
100
AcDbEntity
 67
     1
  8
0
100
AcDbBlockBegin
  2
*PAPER_SPACE
 70
     0
 10
0.0
 20
0.0
 30
0.0
  3
*PAPER_SPACE
  1

  0
ENDBLK
  5
15
330
11
100
AcDbEntity
 67
     1
  8
0
100
AcDbBlockEnd
  0
ENDSEC
  0
SECTION
  2
ENTITIES
  0
LWPOLYLINE
  5
32
330
2
100
AcDbEntity
  8
EHITISED
 48
0.5
100
AcDbPolyline
 90
        4
 70
     1
 43
0.0
 10
466859.6532332045
 20
6529661.017664854
 10
466846.8949940516
 20
6529661.188068288
 10
466846.8719940515
 20
6529653.247068289
 10
466859.5499940516
 20
6529653.288068288
  0
LWPOLYLINE
  5
33
330
2
100
AcDbEntity
  8
EHITISED
  6
Continuous
 62
     5
100
AcDbPolyline
 90
        5
 70
     0
 43
0.0
 10
466794.0395178145
 20
6530210.059196812
 10
466783.391005759
 20
6530200.265456413
 10
466771.9256202928
 20
6530194.966862155
 10
466770.1058879161
 20
6530196.908334297
 10
466772.8819994219
 20
6530201.116976702
  0
MTEXT
  5
34
330
2
100
AcDbEntity
  8
EHITISED
  6
Continuous
100
AcDbMText
 10
466776.3047434802
 20
6530200.879312312
 30
4.0
 40
2.0
 41
33.11628316718423
 71
     1
 72
     5
  1
\fArial Black|b0|i1|c186|p34;VRAKK
  7
KOORD
 11
0.7201997492936803
 21
0.6937667627649226
 31
0.0
 73
     1
 44
1.0
1001
ACAD
1000
MTEXTBEGIN
1070
    73
1070
     1
1070
    44
1040
1.0
1070
    74
1070
     0
1000
MTEXTEND
  0
LWPOLYLINE
  5
35
330
2
100
AcDbEntity
  8
EHITISED
  6
Continuous
100
AcDbPolyline
 90
        4
 70
     1
 43
0.0
 10
466758.8880731747
 20
6529865.258096462
 10
466766.7969
 20
6529856.333999998
 10
466772.7825
 20
6529861.615099999
 10
466764.8631409266
 20
6529870.559039702
  0
LWPOLYLINE
  5
37
330
2
100
AcDbEntity
  8
EHITISED
  6
Continuous
100
AcDbPolyline
 90
        3
 70
     0
 43
0.0
 38
69115.49937004555
 10
466688.3723423423
 20
6529539.007209892
 10
466697.9689104123
 20
6529547.729743828
 10
466698.8269313595
 20
6529547.708742545
210
-0.00672161134962
220
0.0110645061168515
230
0.9999161948109726
1001
MStation
1000
Lnkg
1002
{
1004
1B10970E2B250000004082025724C8022ADBEB26E708000000005B04D9B7050000000000000000000000000000000000000000000F000000
1002
}
  0
LWPOLYLINE
  5
39
330
2
100
AcDbEntity
  8
EHITISED
  6
Continuous
100
AcDbPolyline
 90
        7
 70
     0
 43
0.0
 10
466750.466
 20
6529819.557999998
 10
466761.7479999999
 20
6529806.557
 10
466735.8580000001
 20
6529793.746
 10
466721.341
 20
6529791.182
 10
466704.71
 20
6529789.627999997
 10
466691.039
 20
6529789.487
 10
466678.7507514007
 20
6529789.599426671
  0
LWPOLYLINE
  5
3A
330
2
100
AcDbEntity
  8
EHITISED
  6
Continuous
100
AcDbPolyline
 90
       47
 70
     0
 43
0.0
 10
466678.1973802955
 20
6529789.907996668
 10
466650.9524016048
 20
6529789.942072103
 10
466620.9524250686
 20
6529789.979593231
 10
466590.9524485326
 20
6529790.017114353
 10
466560.9524719966
 20
6529790.054635481
 10
466530.9524954606
 20
6529790.092156606
 10
466510.9475111068
 20
6529790.117176943
 10
466502.9375173673
 20
6529790.127195075
 10
466506.875
 20
6529933.114
 10
466507.088
 20
6529940.076
 10
466507.6179999998
 20
6529955.402
 10
466508.158
 20
6529970.267999997
 10
466508.358
 20
6529975.958999999
 10
466508.348
 20
6529976.114
 10
466508.437
 20
6529981.696999999
 10
466508.43
 20
6529985.452
 10
466508.1057979953
 20
6529985.749966003
 10
466501.602
 20
6529985.735
 10
466501.25
 20
6529985.421
 10
466501.219
 20
6529982.607999999
 10
466500.831
 20
6529969.632999998
 10
466500.412
 20
6529956.717
 10
466499.799
 20
6529936.117
 10
466496.3241440695
 20
6529933.201015304
 10
466492.5853730474
 20
6529790.386015259
 10
466491.9784803328
 20
6529774.70030938
 10
466503.1558886462
 20
6529774.432909692
 10
466503.241290228
 20
6529781.626808508
 10
466530.9418644747
 20
6529781.592163256
 10
466560.9418410109
 20
6529781.554642129
 10
466590.941817547
 20
6529781.517121002
 10
466620.9417940832
 20
6529781.479599876
 10
466650.941770619
 20
6529781.442078752
 10
466678.1867493905
 20
6529781.408003316
 10
466687.949
 20
6529781.445000001
 10
466698.9489999999
 20
6529781.707
 10
466708.711
 20
6529781.766
 10
466719.593
 20
6529782.126
 10
466730.085
 20
6529784.176
 10
466738.8189999999
 20
6529785.828
 10
466747.21
 20
6529788.332
 10
466755.715
 20
6529792.352999999
 10
466762.6709999999
 20
6529795.699
 10
466769.591
 20
6529800.725999999
 10
466778.844
 20
6529803.870000002
 10
466789.2539999999
 20
6529807.886
 10
466795.7589999999
 20
6529810.549999999
  0
LWPOLYLINE
  5
3B
330
2
100
AcDbEntity
  8
EHITISED
  6
Continuous
100
AcDbPolyline
 90
        4
 70
     0
 43
0.0
 10
466865.005411964
 20
6529665.132045657
 10
466873.0233382897
 20
6529664.962616951
 10
466841.4613161948
 20
6529724.863734847
 10
466797.5352820862
 20
6529808.181386944
  0
LWPOLYLINE
  5
3C
330
2
100
AcDbEntity
  8
EHITISED
 48
0.5
100
AcDbPolyline
 90
        2
 70
     0
 43
0.0
 10
466919.0973821872
 20
6529457.839650894
 10
466907.7284778139
 20
6529519.347878521
  0
LWPOLYLINE
  5
3D
330
2
100
AcDbEntity
  8
EHITISED
  6
ACAD_ISO03W100
 62
     2
 48
0.4
100
AcDbPolyline
 90
        2
 70
     1
 43
0.0
 10
466898.3179940515
 20
6529625.486068289
 10
466926.5419940514
 20
6529462.361068289
  0
LWPOLYLINE
  5
3F
330
2
100
AcDbEntity
  8
EHITISED
 48
0.5
100
AcDbPolyline
 90
        4
 70
     1
 43
0.0
 10
466878.6208242541
 20
6529635.324450286
 10
466890.9842155012
 20
6529635.371880118
 10
466890.9159535558
 20
6529627.28722483
 10
466878.6024592232
 20
6529627.315460312
  0
LWPOLYLINE
  5
40
330
2
100
AcDbEntity
  8
EHITISED
  6
Continuous
100
AcDbPolyline
 90
       62
 70
     0
 43
0.0
 10
466880.6022155012
 20
6529627.206880119
 10
466880.6022155012
 20
6529627.206880119
 10
466880.6022155012
 20
6529627.206880119
 10
466880.6022155012
 20
6529627.206880119
 10
466880.6022155012
 20
6529627.206880119
 10
466880.6022155012
 20
6529627.206880119
 10
466880.6022155012
 20
6529627.206880119
 10
466881.2509907503
 20
6529627.201902107
 10
466881.3235668086
 20
6529625.913934442
 10
466883.3105223316
 20
6529626.013823127
 10
466883.3060012789
 20
6529627.178821223
 10
466890.9159535558
 20
6529627.28722483
 10
466890.954234876
 20
6529626.658241888
 10
466892.3812155013
 20
6529626.701880117
 10
466892.4222155012
 20
6529635.159880117
 10
466892.4492155013
 20
6529635.957880119
 10
466891.0222155012
 20
6529636.000880117
 10
466890.9842155012
 20
6529635.371880118
 10
466883.3742155013
 20
6529635.47688012
 10
466883.3782155011
 20
6529636.641880117
 10
466881.3912155012
 20
6529636.740880119
 10
466881.3192155012
 20
6529635.452880119
 10
466880.6211028896
 20
6529635.443670189
 10
466880.6319287265
 20
6529640.164817632
 10
466880.6319287265
 20
6529640.164817632
 10
466880.6319287265
 20
6529640.164817632
 10
466880.6319287265
 20
6529640.164817632
 10
466880.6319287265
 20
6529640.164817632
 10
466880.6319287265
 20
6529640.164817632
 10
466880.6319287265
 20
6529640.164817632
 10
466880.6319287265
 20
6529640.164817632
 10
466880.6319287265
 20
6529640.164817632
 10
466880.6319287265
 20
6529640.164817632
 10
466777.9589940515
 20
6529640.552068289
 10
466778.7289940514
 20
6529650.120068288
 10
466848.3599940516
 20
6529650.238068287
 10
466848.4019940516
 20
6529653.057068287
 10
466848.4019940516
 20
6529653.057068287
 10
466848.4019940516
 20
6529653.057068287
 10
466848.4019940516
 20
6529653.057068287
 10
466848.4019940516
 20
6529653.057068287
 10
466848.4019940516
 20
6529653.057068287
 10
466848.4019940516
 20
6529653.057068287
 10
466849.0507693006
 20
6529653.052090278
 10
466849.1233453589
 20
6529651.76412261
 10
466851.1103008817
 20
6529651.864011298
 10
466851.1057798292
 20
6529653.029009391
 10
466858.7157321061
 20
6529653.137412999
 10
466858.7540134264
 20
6529652.508430057
 10
466860.1809940516
 20
6529652.552068288
 10
466860.2219940516
 20
6529661.010068287
 10
466860.2489940514
 20
6529661.808068289
 10
466858.8219940516
 20
6529661.851068287
 10
466858.7839940516
 20
6529661.222068289
 10
466851.1739940515
 20
6529661.327068288
 10
466851.1779940515
 20
6529662.492068288
 10
466849.1909940516
 20
6529662.591068287
 10
466849.1189940516
 20
6529661.303068287
 10
466848.3609940516
 20
6529661.293068288
 10
466848.3759940516
 20
6529665.378068289
 10
466848.3771615099
 20
6529665.378068288
 10
466865.5051615099
 20
6529665.130068288
  0
LWPOLYLINE
  5
41
330
2
100
AcDbEntity
  8
EHITISED
  6
Continuous
100
AcDbPolyline
 90
        3
 70
     0
 43
0.0
 10
466888.2687436329
 20
6529624.62924252
 10
466888.2687436329
 20
6529624.62924252
 10
466880.5963598805
 20
6529624.653243866
  0
LWPOLYLINE
  5
42
330
2
100
AcDbEntity
  8
EHITISED
  6
Continuous
100
AcDbPolyline
 90
        2
 70
     0
 43
0.0
 10
466880.596373348
 20
6529624.659117073
 10
466880.6022155012
 20
6529627.206880119
  0
LWPOLYLINE
  5
43
330
2
100
AcDbEntity
  8
EHITISED
 48
0.5
100
AcDbPolyline
 90
        8
 70
     1
 43
0.0
 38
3.326999999999998
 10
466725.2279999999
 20
6529851.668
 10
466735.035
 20
6529840.870000001
 10
466734.81
 20
6529840.629999998
 10
466735.7229999969
 20
6529839.629000004
 10
466743.087
 20
6529846.315999999
 10
466742.174
 20
6529847.329999999
 10
466741.9230000001
 20
6529847.109000001
 10
466732.0969999983
 20
6529857.909000003
  0
LWPOLYLINE
  5
44
330
2
100
AcDbEntity
  8
EHITISED
  6
Continuous
100
AcDbPolyline
 90
       82
 70
     0
 43
0.0
 10
466773.4823693022
 20
6529868.042360154
 10
466773.3
 20
6529867.99
 10
466770.02
 20
6529872.01
 10
466769.39
 20
6529871.97
 10
466766.2009999999
 20
6529869.156000001
 10
466766.5016745846
 20
6529868.822794111
 10
466767.3409708075
 20
6529869.580148802
 10
466768.2769098917
 20
6529868.529869551
 10
466767.4315696978
 20
6529867.76291184
 10
466772.4201185967
 20
6529862.190310361
 10
466772.6440910009
 20
6529862.365058058
 10
466773.2027875937
 20
6529861.751643757
 10
466766.6116857866
 20
6529855.913404873
 10
466766.0455581905
 20
6529856.544232759
 10
466766.2077621716
 20
6529856.719373261
 10
466761.2719536545
 20
6529862.255859304
 10
466760.4574113632
 20
6529861.49956795
 10
466759.4391000981
 20
6529862.632646544
 10
466760.288933482
 20
6529863.411175417
 10
466760.0389999999
 20
6529863.684000003
 10
466756.4410000024
 20
6529860.373000002
 10
466715.515267924
 20
6529905.890653973
 10
466709.4096481784
 20
6529912.741000003
 10
466708.4980000002
 20
6529912.762000003
 10
466706.3271149479
 20
6529910.789043928
 10
466693.0021513556
 20
6529925.397448792
 10
466693.7343810559
 20
6529926.062790427
 10
466693.0021513361
 20
6529925.397448812
 10
466686.2619999999
 20
6529919.272999999
 10
466684.2400000043
 20
6529919.349000001
 10
466682.1880000003
 20
6529921.559000008
 10
466682.2550000002
 20
6529923.645000002
 10
466689.6285396574
 20
6529930.516680417
 10
466681.6848808418
 20
6529939.273399567
 10
466680.9544043839
 20
6529938.617566452
 10
466688.9204072131
 20
6529929.856744999
 10
466683.7827908703
 20
6529925.068806083
 10
466675.7665730126
 20
6529933.959850866
 10
466675.0264368014
 20
6529933.295345077
 10
466682.5120000001
 20
6529940.016000002
 10
466682.6259999999
 20
6529942.147000001
 10
466680.5249342234
 20
6529944.345078876
 10
466678.4797597998
 20
6529944.374938557
 10
466676.233
 20
6529942.456
 10
466672.442
 20
6529939.087999999
 10
466671.7005756335
 20
6529938.397146183
 10
466670.2439354851
 20
6529937.039859513
 10
466670.2333679121
 20
6529934.970328046
 10
466672.1650000001
 20
6529932.754999999
 10
466674.2720000001
 20
6529932.618
 10
466675.0264368014
 20
6529933.295345077
 10
466683.0635494186
 20
6529924.398517777
 10
466690.4240000007
 20
6529931.258000001
 10
466692.5530000011
 20
6529931.106999997
 10
466694.5800000006
 20
6529928.884000002
 10
466694.538
 20
6529926.792999998
 10
466693.7343810559
 20
6529926.062790427
 10
466707.0424371349
 20
6529911.439147099
 10
466700.3350661643
 20
6529905.343316153
 10
466687.0549462315
 20
6529919.993511809
 10
466687.7833850428
 20
6529920.655408887
 10
466701.063493297
 20
6529906.005329433
 10
466698.901
 20
6529904.040000003
 10
466698.8179996572
 20
6529903.200999805
 10
466725.6342732776
 20
6529873.482118833
 10
466745.9630001148
 20
6529850.953000069
 10
466743.3294579322
 20
6529848.563640726
 10
466736.7358545883
 20
6529855.829605876
 10
466739.3832102942
 20
6529858.244989749
 10
466739.9191547021
 20
6529857.651034342
 10
466737.2734669132
 20
6529855.237172238
 10
466735.8970000001
 20
6529856.753999998
 10
466735.0036761596
 20
6529855.940318554
 10
466743.2510000007
 20
6529846.852000003
 10
466735.1420000002
 20
6529839.462000004
 10
466734.3020000003
 20
6529840.433000003
 10
466726.89
 20
6529848.549999997
 10
466725.9997152718
 20
6529847.73908672
 10
466733.3909999991
 20
6529839.598999998
 10
466733.1629999999
 20
6529839.352000003
 10
466733.1629999999
 20
6529838.876
 10
466734.396
 20
6529837.462
  0
LWPOLYLINE
  5
45
330
2
100
AcDbEntity
  8
EHITISED
  6
Continuous
100
AcDbPolyline
 90
        2
 70
     0
 43
0.0
 38
4709030.192194187
 10
4547708.535686041
 20
2.965999999930216
 10
4547684.477462582
 20
0.0
210
0.7441946006862651
220
0.6679628704571914
230
0.0
  0
LWPOLYLINE
  5
54
330
2
100
AcDbEntity
  8
EHITISED
  6
Continuous
100
AcDbPolyline
 90
        8
 70
     1
 43
0.0
 38
2.58
 10
466688.116
 20
6529926.872999999
 10
466688.739
 20
6529926.866000002
 10
466690.0140000001
 20
6529925.500000004
 10
466690.0140000001
 20
6529924.881000003
 10
466688.6370000001
 20
6529923.613
 10
466688.008
 20
6529923.628999998
 10
466686.719
 20
6529924.968000001
 10
466686.7569999999
 20
6529925.596000001
  0
LWPOLYLINE
  5
66
330
2
100
AcDbEntity
  8
EHITISED
  6
Continuous
100
AcDbPolyline
 90
        9
 70
     0
 43
0.0
 38
2.407
 10
466732.0580000001
 20
6529874.934000003
 10
466732.099
 20
6529875.537999997
 10
466733.5160000061
 20
6529876.756000005
 10
466734.1049999956
 20
6529876.721000006
 10
466735.345
 20
6529875.322000001
 10
466735.312
 20
6529874.728999998
 10
466733.914
 20
6529873.484000001
 10
466733.3240000001
 20
6529873.524
 10
466732.0580000001
 20
6529874.934000003
  0
LWPOLYLINE
  5
7E
330
2
100
AcDbEntity
  8
EHITISED
  6
Continuous
100
AcDbPolyline
 90
        4
 70
     1
 43
0.0
 10
466908.6700000001
 20
6529984.590000002
 10
466911.6350318661
 20
6529984.630000431
 10
466911.6755
 20
6529981.6303
 10
466908.7104681341
 20
6529981.59029957
  0
LWPOLYLINE
  5
DB
330
2
100
AcDbEntity
  8
EHITISED
  6
Continuous
100
AcDbPolyline
 90
        2
 70
     0
 43
0.0
 10
466360.9606
 20
6530099.5224
 10
466358.8475
 20
6530101.640000001
1001
MStation
1000
Lnkg
1002
{
1004
1B10970EB3231A0000508602D0338E270426F111000000000000000000000000000000000000000036000000000000000000000000000000
1002
}
1001
ACAD
1000
RTMaterial
1005
0
  0
LWPOLYLINE
  5
DC
330
2
100
AcDbEntity
  8
EHITISED
  6
Continuous
100
AcDbPolyline
 90
        2
 70
     0
 43
0.0
 10
466359.9675999999
 20
6530101.6786
 10
466361.0221
 20
6530100.621899999
1001
MStation
1000
Lnkg
1002
{
1004
1B10970EB3231A0000508602D0338E270426F111000000000000000000000000000000000000000036000000000000000000000000000000
1002
}
1001
ACAD
1000
RTMaterial
1005
0
  0
LWPOLYLINE
  5
DD
330
2
100
AcDbEntity
  8
EHITISED
  6
Continuous
100
AcDbPolyline
 90
        2
 70
     0
 43
0.0
 10
466358.8475
 20
6530101.640000001
 10
466360.9876000001
 20
6530103.7756
1001
MStation
1000
Lnkg
1002
{
1004
1B10970EB3231A0000508602D0338E270426F111000000000000000000000000000000000000000036000000000000000000000000000000
1002
}
1001
ACAD
1000
RTMaterial
1005
0
  0
LWPOLYLINE
  5
DE
330
2
100
AcDbEntity
  8
EHITISED
  6
Continuous
100
AcDbPolyline
 90
        2
 70
     0
 43
0.0
 10
466360.9611
 20
6530102.670100002
 10
466359.9675999999
 20
6530101.6788
1001
MStation
1000
Lnkg
1002
{
1004
1B10970EB3231A0000508602D0338E270426F111000000000000000000000000000000000000000036000000000000000000000000000000
1002
}
1001
ACAD
1000
RTMaterial
1005
0
  0
LWPOLYLINE
  5
DF
330
2
100
AcDbEntity
  8
EHITISED
  6
Continuous
100
AcDbPolyline
 90
        2
 70
     0
 43
0.0
 10
466360.9876000001
 20
6530103.7756
 10
466363.1008
 20
6530101.658000003
1001
MStation
1000
Lnkg
1002
{
1004
1B10970EB3231A0000508602D0338E270426F111000000000000000000000000000000000000000036000000000000000000000000000000
1002
}
1001
ACAD
1000
RTMaterial
1005
0
  0
LWPOLYLINE
  5
E0
330
2
100
AcDbEntity
  8
EHITISED
  6
Continuous
100
AcDbPolyline
 90
        2
 70
     0
 43
0.0
 10
466363.1008
 20
6530101.658000003
 10
466360.9606
 20
6530099.5224
1001
MStation
1000
Lnkg
1002
{
1004
1B10970EB3231A0000508602D0338E270426F111000000000000000000000000000000000000000036000000000000000000000000000000
1002
}
1001
ACAD
1000
RTMaterial
1005
0
  0
LWPOLYLINE
  5
E1
330
2
100
AcDbEntity
  8
EHITISED
  6
Continuous
100
AcDbPolyline
 90
        2
 70
     0
 43
0.0
 10
466360.961
 20
6530102.669999997
 10
466362.0155
 20
6530101.613300002
1001
MStation
1000
Lnkg
1002
{
1004
1B10970EB3231A0000508602D0338E270426F111000000000000000000000000000000000000000036000000000000000000000000000000
1002
}
1001
ACAD
1000
RTMaterial
1005
0
  0
LWPOLYLINE
  5
E2
330
2
100
AcDbEntity
  8
EHITISED
  6
Continuous
100
AcDbPolyline
 90
        2
 70
     0
 43
0.0
 10
466362.0155
 20
6530101.613300002
 10
466361.0220000001
 20
6530100.622
1001
MStation
1000
Lnkg
1002
{
1004
1B10970EB3231A0000508602D0338E270426F111000000000000000000000000000000000000000036000000000000000000000000000000
1002
}
1001
ACAD
1000
RTMaterial
1005
0
  0
LWPOLYLINE
  5
E3
330
2
100
AcDbEntity
  8
EHITISED
  6
Continuous
100
AcDbPolyline
 90
        2
 70
     0
 43
0.0
 10
466933.9800000001
 20
6530009.862
 10
466949.928
 20
6530016.667
1001
MStation
1000
Lnkg
1002
{
1004
1B10970E8D251A000050860290BFE7270E2EE411000000000000000000000000000000000000000036000000000000000000000000000000
1002
}
1001
ACAD
1000
RTMaterial
1005
0
  0
LWPOLYLINE
  5
E4
330
2
100
AcDbEntity
  8
EHITISED
  6
Continuous
100
AcDbPolyline
 90
        2
 70
     0
 43
0.0
 10
466934.9227
 20
6530007.652600001
 10
466950.8707000001
 20
6530014.4576
1001
MStation
1000
Lnkg
1002
{
1004
1B10970E8D251A000050860290BFE7270E2EE411000000000000000000000000000000000000000036000000000000000000000000000000
1002
}
1001
ACAD
1000
RTMaterial
1005
0
  0
LWPOLYLINE
  5
E5
330
2
100
AcDbEntity
  8
EHITISED
  6
Continuous
100
AcDbPolyline
 90
        2
 70
     0
 43
0.0
 10
466949.928
 20
6530016.667
 10
466950.8707000001
 20
6530014.4576
1001
MStation
1000
Lnkg
1002
{
1004
1B10970E8F251A000050860263E4E727C0D7E311000000000000000000000000000000000000000036000000000000000000000000000000
1002
}
1001
ACAD
1000
RTMaterial
1005
0
  0
LWPOLYLINE
  5
E6
330
2
100
AcDbEntity
  8
EHITISED
  6
Continuous
100
AcDbPolyline
 90
        2
 70
     0
 43
0.0
 10
466934.9227
 20
6530007.652600001
 10
466933.9800000001
 20
6530009.862
1001
MStation
1000
Lnkg
1002
{
1004
1B10970E91251A00005086029850E5273C24E311000000000000000000000000000000000000000036000000000000000000000000000000
1002
}
1001
ACAD
1000
RTMaterial
1005
0
  0
LWPOLYLINE
  5
E7
330
2
100
AcDbEntity
  8
EHITISED
  6
Continuous
100
AcDbPolyline
 90
        2
 70
     0
 43
0.0
 10
466877.241
 20
6530023.099
 10
466879.947
 20
6530006.395
1001
MStation
1000
Lnkg
1002
{
1004
1B10970EC9258D000050860AEE11DD27CE9CE211000000000000000000000000000000000000000036000000000000000000000000000000
1002
}
1001
ACAD
1000
RTMaterial
1005
0
  0
LWPOLYLINE
  5
E8
330
2
100
AcDbEntity
  8
EHITISED
  6
Continuous
100
AcDbPolyline
 90
        2
 70
     0
 43
0.0
 10
466879.947
 20
6530006.395
 10
466882.7266
 20
6529989.6383
1001
MStation
1000
Lnkg
1002
{
1004
1B10970ECA258D000050860A9583DD278D21E011000000000000000000000000000000000000000036000000000000000000000000000000
1002
}
1001
ACAD
1000
RTMaterial
1005
0
  0
LWPOLYLINE
  5
E9
330
2
100
AcDbEntity
  8
EHITISED
  6
Continuous
100
AcDbPolyline
 90
        2
 70
     0
 43
0.0
 10
466880.518
 20
6529989.345999999
 10
466875.054
 20
6530022.735000001
1001
MStation
1000
Lnkg
1002
{
1004
1B10970ECC251A0000508602CC52DC27161BE511000000000000000000000000000000000000000036000000000000000000000000000000
1002
}
1001
ACAD
1000
RTMaterial
1005
0
  0
LWPOLYLINE
  5
EA
330
2
100
AcDbEntity
  8
EHITISED
  6
Continuous
100
AcDbPolyline
 90
        2
 70
     0
 43
0.0
 10
466877.241
 20
6530023.099
 10
466879.6399
 20
6530023.498300002
1001
MStation
1000
Lnkg
1002
{
1004
1B10970ECD251A00005086023AA8DC274E29E511000000000000000000000000000000000000000036000000000000000000000000000000
1002
}
1001
ACAD
1000
RTMaterial
1005
0
  0
LWPOLYLINE
  5
EB
330
2
100
AcDbEntity
  8
EHITISED
  6
Continuous
100
AcDbPolyline
 90
        2
 70
     0
 43
0.0
 10
466880.518
 20
6529989.345999999
 10
466882.7711
 20
6529989.6184
1001
MStation
1000
Lnkg
1002
{
1004
1B10970ECF251A00005086023F80DD27780DE011000000000000000000000000000000000000000036000000000000000000000000000000
1002
}
1001
ACAD
1000
RTMaterial
1005
0
  0
LWPOLYLINE
  5
EC
330
2
100
AcDbEntity
  8
EHITISED
  6
Continuous
100
AcDbPolyline
 90
        2
 70
     0
 43
0.0
 10
466886.407
 20
6529994.691
 10
466881.5576
 20
6530024.324300001
1001
MStation
1000
Lnkg
1002
{
1004
1B10970ECC251A0000508602CC52DC27161BE511000000000000000000000000000000000000000036000000000000000000000000000000
1002
}
1001
ACAD
1000
RTMaterial
1005
0
  0
LWPOLYLINE
  5
ED
330
2
100
AcDbEntity
  8
EHITISED
  6
Continuous
100
AcDbPolyline
 90
        2
 70
     0
 43
0.0
 10
466874.9719
 20
6530023.228200002
 10
466879.5591000001
 20
6530023.9917
1001
MStation
1000
Lnkg
1002
{
1004
1B10970ECD251A00005086023AA8DC274E29E511000000000000000000000000000000000000000036000000000000000000000000000000
1002
}
1001
ACAD
1000
RTMaterial
1005
0
  0
LWPOLYLINE
  5
EE
330
2
100
AcDbEntity
  8
EHITISED
  6
Continuous
100
AcDbPolyline
 90
        2
 70
     0
 43
0.0
 10
466879.5591000001
 20
6530023.9917
 10
466881.5576
 20
6530024.324300001
1001
MStation
1000
Lnkg
1002
{
1004
1B10970E2E261A0000508602D850DD272B59E511000000000000000000000000000000000000000036000000000000000000000000000000
1002
}
1001
ACAD
1000
RTMaterial
1005
0
  0
LWPOLYLINE
  5
EF
330
2
100
AcDbEntity
  8
EHITISED
  6
Continuous
100
AcDbPolyline
 90
        2
 70
     0
 43
0.0
 10
466884.7339
 20
6529992.370300001
 10
466907.4196
 20
6529997.3885
1001
MStation
1000
Lnkg
1002
{
1004
1B10970E32261A0000508602A650E127C22CE111000000000000000000000000000000000000000036000000000000000000000000000000
1002
}
1001
ACAD
1000
RTMaterial
1005
0
  0
LWPOLYLINE
  5
F0
330
2
100
AcDbEntity
  8
EHITISED
  6
Continuous
100
AcDbPolyline
 90
        2
 70
     0
 43
0.0
 10
466884.3775
 20
6529994.2421
 10
466907.0083
 20
6529999.2481
1001
MStation
1000
Lnkg
1002
{
1004
1B10970E32261A0000508602A650E127C22CE111000000000000000000000000000000000000000036000000000000000000000000000000
1002
}
1001
ACAD
1000
RTMaterial
1005
0
  0
LWPOLYLINE
  5
F1
330
2
100
AcDbEntity
  8
EHITISED
  6
Continuous
100
AcDbPolyline
 90
        2
 70
     0
 43
0.0
 10
466884.4262
 20
6529994.250100003
 10
466879.5591000001
 20
6530023.9917
1001
MStation
1000
Lnkg
1002
{
1004
1B10970ECC251A0000508602CC52DC27161BE511000000000000000000000000000000000000000036000000000000000000000000000000
1002
}
1001
ACAD
1000
RTMaterial
1005
0
  0
LWPOLYLINE
  5
F2
330
2
100
AcDbEntity
  8
EHITISED
  6
Continuous
100
AcDbPolyline
 90
        2
 70
     0
 43
0.0
 10
466882.7266
 20
6529989.6383
 10
466885.1059
 20
6529990.0968
1001
MStation
1000
Lnkg
1002
{
1004
1B10970E33268D000050860A73DBDD272820E011000000000000000000000000000000000000000036000000000000000000000000000000
1002
}
1001
ACAD
1000
RTMaterial
1005
0
  0
LWPOLYLINE
  5
F3
330
2
100
AcDbEntity
  8
EHITISED
  6
Continuous
100
AcDbPolyline
 90
        2
 70
     0
 43
0.0
 10
466885.1059
 20
6529990.0968
 10
466884.7339
 20
6529992.370300001
1001
MStation
1000
Lnkg
1002
{
1004
1B10970E34268D000050860AEBCCDD27F778E011000000000000000000000000000000000000000036000000000000000000000000000000
1002
}
1001
ACAD
1000
RTMaterial
1005
0
  0
LWPOLYLINE
  5
F4
330
2
100
AcDbEntity
  8
EHITISED
  6
Continuous
100
AcDbPolyline
 90
        2
 70
     0
 43
0.0
 10
466923.5084000001
 20
6530010.647800001
 10
466925.1915
 20
6530006.8078
1001
MStation
1000
Lnkg
1002
{
1004
1B10970E4D26C700005086024BF9E327EEACE211000000000000000000000000000000000000000036000000000000000000000000000000
1002
}
1001
ACAD
1000
RTMaterial
1005
0
  0
LWPOLYLINE
  5
F5
330
2
100
AcDbEntity
  8
EHITISED
  6
Continuous
100
AcDbPolyline
 90
        2
 70
     0
 43
0.0
 10
466925.1915
 20
6530006.8078
 10
466933.7812000001
 20
6530009.891399999
1001
MStation
1000
Lnkg
1002
{
1004
1B10970E4E26C70000508602D448E5276225E311000000000000000000000000000000000000000036000000000000000000000000000000
1002
}
1001
ACAD
1000
RTMaterial
1005
0
  0
LWPOLYLINE
  5
F6
330
2
100
AcDbEntity
  8
EHITISED
  6
Continuous
100
AcDbPolyline
 90
        2
 70
     0
 43
0.0
 10
466921.6511000001
 20
6530010.938700002
 10
466923.0441
 20
6530011.7532
1001
MStation
1000
Lnkg
1002
{
1004
1B10970E5026C7000050860269A5E3271C6EE311000000000000000000000000000000000000000036000000000000000000000000000000
1002
}
1001
ACAD
1000
RTMaterial
1005
0
  0
LWPOLYLINE
  5
F7
330
2
100
AcDbEntity
  8
EHITISED
  6
Continuous
100
AcDbPolyline
 90
        2
 70
     0
 43
0.0
 10
466925.1915
 20
6530004.4805
 10
466934.9227
 20
6530007.652600001
1001
MStation
1000
Lnkg
1002
{
1004
1B10970E5226C700005086026B75E527EECDE211000000000000000000000000000000000000000036000000000000000000000000000000
1002
}
1001
ACAD
1000
RTMaterial
1005
0
  0
LWPOLYLINE
  5
F8
330
2
100
AcDbEntity
  8
EHITISED
  6
Continuous
100
AcDbPolyline
 90
        2
 70
     0
 43
0.0
 10
466907.4196
 20
6529997.3885
 10
466907.0083
 20
6529999.2481
1001
MStation
1000
Lnkg
1002
{
1004
1B10970E53261A00005086020333E127A185E111000000000000000000000000000000000000000036000000000000000000000000000000
1002
}
1001
ACAD
1000
RTMaterial
1005
0
  0
LWPOLYLINE
  5
F9
330
2
100
AcDbEntity
  8
EHITISED
  6
Continuous
100
AcDbPolyline
 90
        2
 70
     0
 43
0.0
 10
466908.67
 20
6529984.59
 10
466911.6755
 20
6529981.6303
  0
LWPOLYLINE
  5
FA
330
2
100
AcDbEntity
  8
EHITISED
  6
Continuous
100
AcDbPolyline
 90
        2
 70
     0
 43
0.0
 10
466908.7105
 20
6529981.5903
 10
466911.635
 20
6529984.63
  0
LWPOLYLINE
  5
126
330
2
100
AcDbEntity
  8
EHITISED
 48
0.5
100
AcDbPolyline
 90
        2
 70
     0
 43
0.0
 10
466907.5408754763
 20
6529519.315536195
 10
466906.4568665389
 20
6529519.128654888
  0
LWPOLYLINE
  5
127
330
2
100
AcDbEntity
  8
EHITISED
 48
0.5
100
AcDbPolyline
 90
        2
 70
     0
 43
0.0
 10
466888.2687436329
 20
6529624.62924252
 10
466906.4568665389
 20
6529519.128654888
  0
LWPOLYLINE
  5
128
330
2
100
AcDbEntity
  8
EI PRINDI
100
AcDbPolyline
 90
        2
 70
     0
 43
0.0
 10
466933.4124640065
 20
6529480.493926463
 10
466915.8115033847
 20
6529471.34158589
  0
LWPOLYLINE
  5
129
330
2
100
AcDbEntity
  8
EI PRINDI
100
AcDbPolyline
 90
        7
 70
     0
 43
0.0
 10
466917.923931757
 20
6529473.824081365
 10
466918.1210242911
 20
6529473.858059782
 10
466918.2155032264
 20
6529473.310032742
 10
466919.8047493947
 20
6529474.126343317
 10
466920.1017332389
 20
6529473.548155983
 10
466918.1447914838
 20
6529472.542979898
 10
466917.923931757
 20
6529473.824081365
  0
LWPOLYLINE
  5
12B
330
2
100
AcDbEntity
  8
EI PRINDI
100
AcDbPolyline
 90
        2
 70
     0
 43
0.0
 10
466933.4124640065
 20
6529480.493926463
 10
466915.8115033847
 20
6529471.34158589
  0
LWPOLYLINE
  5
12C
330
2
100
AcDbEntity
  8
EI PRINDI
100
AcDbPolyline
 90
        7
 70
     0
 43
0.0
 10
466917.923931757
 20
6529473.824081365
 10
466918.1210242911
 20
6529473.858059782
 10
466918.2155032264
 20
6529473.310032742
 10
466919.8047493947
 20
6529474.126343317
 10
466920.1017332389
 20
6529473.548155983
 10
466918.1447914838
 20
6529472.542979898
 10
466917.923931757
 20
6529473.824081365
  0
LWPOLYLINE
  5
12E
330
2
100
AcDbEntity
  8
EI PRINDI
100
AcDbPolyline
 90
        2
 70
     0
 43
0.0
 10
466933.4124640065
 20
6529480.493926463
 10
466915.8115033847
 20
6529471.34158589
  0
LWPOLYLINE
  5
12F
330
2
100
AcDbEntity
  8
EI PRINDI
100
AcDbPolyline
 90
        7
 70
     0
 43
0.0
 10
466917.923931757
 20
6529473.824081365
 10
466918.1210242911
 20
6529473.858059782
 10
466918.2155032264
 20
6529473.310032742
 10
466919.8047493947
 20
6529474.126343317
 10
466920.1017332389
 20
6529473.548155983
 10
466918.1447914838
 20
6529472.542979898
 10
466917.923931757
 20
6529473.824081365
  0
LWPOLYLINE
  5
130
330
2
100
AcDbEntity
  8
EHITISED
 48
0.5
100
AcDbPolyline
 90
        6
 70
     0
 43
0.0
 10
466919.0851892163
 20
6529457.905617499
 10
466919.0851892163
 20
6529457.905617499
 10
466907.7280607942
 20
6529519.350134687
 10
466908.427791881
 20
6529519.468439083
 10
466908.1397160135
 20
6529521.139429183
 10
466907.25279961
 20
6529520.986526297
  0
LWPOLYLINE
  5
131
330
2
100
AcDbEntity
  8
EI PRINDI
100
AcDbPolyline
 90
        2
 70
     0
 43
0.0
 10
466933.4124640065
 20
6529480.493926463
 10
466916.4927939854
 20
6529471.69585085
  0
LWPOLYLINE
  5
132
330
2
100
AcDbEntity
  8
EI PRINDI
100
AcDbPolyline
 90
        7
 70
     0
 43
0.0
 10
466917.923931757
 20
6529473.824081365
 10
466918.1210242911
 20
6529473.858059782
 10
466918.2155032264
 20
6529473.310032742
 10
466919.8047493947
 20
6529474.126343317
 10
466920.1017332389
 20
6529473.548155983
 10
466918.1447914838
 20
6529472.542979898
 10
466917.923931757
 20
6529473.824081365
  0
LWPOLYLINE
  5
133
330
2
100
AcDbEntity
  8
EHITISED
 48
0.5
100
AcDbPolyline
 90
        4
 70
     0
 43
0.0
 10
466906.4568665389
 20
6529519.128654888
 10
466888.2687436329
 20
6529624.62924252
 10
466888.2687436329
 20
6529624.62924252
 10
466888.2687436329
 20
6529624.62924252
  0
ENDSEC
  0
SECTION
  2
OBJECTS
  0
DICTIONARY
  5
A
330
0
100
AcDbDictionary
281
     1
  3
ACAD_COLOR
350
2D
  3
ACAD_GROUP
350
29
  3
ACAD_LAYOUT
350
10
  3
ACAD_MATERIAL
350
2C
  3
ACAD_MLINESTYLE
350
2A
  3
ACAD_PLOTSETTINGS
350
2B
  3
ACAD_PLOTSTYLENAME
350
9
  3
AcDbVariableDictionary
350
FB
1001
ADE
1000
ADE02C004
1000
[Query]
1000
CaseSensitiveMatch=0
1000
SaveCurrQueryInSession=1
1000
MkSelSetWithQryObj=0
1000
ShowBlockAsInsPt=0
1000
CreateAssociativeHatchObjects=0
1000
ReferenceBoundaryForAreaLocation=1
1000
ShowImageAsBoundary=1
1000
DefaultJoinOperator=2
1000
ColorForAdd=red
1000
ColorForRemove=red
1000
BlockLocnForQuery=1
1000
TextLocnForQuery=1
1000
[Save Back]
1000
RedefineBlockDefinitions=1
1000
RedefineLayerDefinitions=1
1000
RedefineTextStyleDefinitions=1
1000
RemoveUnusedGroups=1
1000
EraseSavedBackObjects=1
1000
RemoveLockAfterSave=1
1000
CreateHistoryFileOfChanges=0
1000
CreateBackupFileOfSourceDwg=1
1000
DontAddObjectsToSaveSet=0
1000
MarkObjectsForEditingWithoutPrompting=0
1000
[Coordinate Transformation]
1000
RestoreLastActiveDwgsOnStartup=1
1000
ActivateDwgsOnAttach=1
1000
AdjustSizesAndScalesForChangesInUnits=1
1000
AdjustRotationsForMapDistortions=1
1000
AdjustSizesAndScalesForMapDistortions=1
1000
AdjustElevations=1
1000
AdjustZeroRotationObjects=1
1000
ReconnectDbOnWSOpen=1
1000
NoOfSQLConditionsInHistory=10
  0
DICTIONARY
  5
18
330
17
100
AcDbDictionary
280
     1
281
     1
  3
ACAD_LAYERFILTERS
360
19
  3
ACAD_LAYERSTATES
360
1A
  0
DICTIONARY
  5
110
330
10F
100
AcDbDictionary
280
     1
281
     1
  0
DICTIONARY
  5
3
330
2
100
AcDbDictionary
280
     1
281
     1
  3
ACAD_LAYOUTSELFREF
360
4
  3
ACAD_SORTENTS
360
5
  0
DICTIONARY
  5
12
330
11
100
AcDbDictionary
280
     1
281
     1
  3
ACAD_LAYOUTSELFREF
360
13
  0
DICTIONARY
  5
2D
102
{ACAD_REACTORS
330
A
102
}
330
A
100
AcDbDictionary
281
     1
  0
DICTIONARY
  5
29
102
{ACAD_REACTORS
330
25
102
}
330
A
100
AcDbDictionary
281
     1
  0
DICTIONARY
  5
10
102
{ACAD_REACTORS
330
A
102
}
330
A
100
AcDbDictionary
281
     1
  3
Layout1
350
16
  3
Model
350
F
  0
DICTIONARY
  5
2C
102
{ACAD_REACTORS
330
A
102
}
330
A
100
AcDbDictionary
281
     1
  0
DICTIONARY
  5
2A
102
{ACAD_REACTORS
330
25
102
}
330
A
100
AcDbDictionary
281
     1
  3
STANDARD
350
30
  0
DICTIONARY
  5
2B
102
{ACAD_REACTORS
330
A
102
}
330
A
100
AcDbDictionary
281
     1
  0
ACDBDICTIONARYWDFLT
  5
9
102
{ACAD_REACTORS
330
A
102
}
330
A
100
AcDbDictionary
281
     1
  3
Normal
350
8
100
AcDbDictionaryWithDefault
340
8
  0
DICTIONARY
  5
FB
102
{ACAD_REACTORS
330
A
102
}
330
A
100
AcDbDictionary
281
     1
  3
DIMASSOC
350
FD
  3
HIDETEXT
350
FC
  3
PROJECTNAME
350
FE
  0
DICTIONARY
  5
19
102
{ACAD_REACTORS
330
18
102
}
330
18
100
AcDbDictionary
281
     1
  0
DICTIONARY
  5
1A
102
{ACAD_REACTORS
330
18
102
}
330
18
100
AcDbDictionary
281
     1
  0
XRECORD
  5
4
102
{ACAD_REACTORS
330
3
102
}
330
3
100
AcDbXrecord
280
     1
340
2
  0
SORTENTSTABLE
  5
5
102
{ACAD_REACTORS
330
3
102
}
330
3
100
AcDbSortentsTable
330
2
  0
XRECORD
  5
13
102
{ACAD_REACTORS
330
12
102
}
330
12
100
AcDbXrecord
280
     1
340
11
  0
LAYOUT
  5
16
102
{ACAD_REACTORS
330
10
102
}
330
10
100
AcDbPlotSettings
  1

  2
C:\Program Files\ACAD2000\plotters\DWF Classic.pc3
  4

  6

 40
0.0
 41
0.0
 42
0.0
 43
0.0
 44
0.0
 45
0.0
 46
0.0
 47
0.0
 48
0.0
 49
0.0
140
0.0
141
0.0
142
1.0
143
1.0
 70
   688
 72
     0
 73
     0
 74
     5
  7
acad_pets.ctb
 75
    16
147
1.0
 76
     0
 77
     2
 78
   300
148
0.0
149
0.0
100
AcDbLayout
  1
Layout1
 70
     1
 71
     1
 10
0.0
 20
0.0
 11
12.0
 21
9.0
 12
0.0
 22
0.0
 32
0.0
 14
1.000000000000000E+20
 24
1.000000000000000E+20
 34
1.000000000000000E+20
 15
-1.000000000000000E+20
 25
-1.000000000000000E+20
 35
-1.000000000000000E+20
146
0.0
 13
0.0
 23
0.0
 33
0.0
 16
1.0
 26
0.0
 36
0.0
 17
0.0
 27
1.0
 37
0.0
 76
     0
330
11
  0
LAYOUT
  5
F
102
{ACAD_REACTORS
330
10
102
}
330
10
100
AcDbPlotSettings
  1

  2
PDF995aaaa.pc3
  4
User137
  6

 40
3.174999952316281
 41
3.174999952316281
 42
3.17498779296875
 43
3.175048828125
 44
899.9000244140624
 45
1244.900024414062
 46
13.01
 47
141.6999999999999
 48
409838.252645189
 49
6533171.596368974
140
410705.7777010331
141
6534126.754727798
142
1.0
143
1.0
 70
 11940
 72
     1
 73
     0
 74
     4
  7
acad_pets.ctb
 75
     0
147
1.0
 76
     0
 77
     2
 78
   300
148
-409838.252645189
149
-6533171.596368974
100
AcDbLayout
  1
Model
 70
     1
 71
     0
 10
0.0
 20
0.0
 11
12.0
 21
9.0
 12
0.0
 22
0.0
 32
0.0
 14
0.0
 24
0.0
 34
0.0
 15
0.0
 25
0.0
 35
0.0
146
0.0
 13
0.0
 23
0.0
 33
0.0
 16
1.0
 26
0.0
 36
0.0
 17
0.0
 27
1.0
 37
0.0
 76
     0
330
2
  0
MLINESTYLE
  5
30
330
2A
100
AcDbMlineStyle
  2
STANDARD
 70
     0
  3

 62
   256
 51
90.0
 52
90.0
 71
     2
 49
0.5
 62
   256
  6
BYLAYER
 49
-0.5
 62
   256
  6
BYLAYER
  0
ACDBPLACEHOLDER
  5
8
102
{ACAD_REACTORS
330
9
102
}
330
9
  0
DICTIONARYVAR
  5
FD
102
{ACAD_REACTORS
330
FB
102
}
330
FB
100
DictionaryVariables
280
     0
  1
1
  0
DICTIONARYVAR
  5
FC
102
{ACAD_REACTORS
330
FB
102
}
330
FB
100
DictionaryVariables
280
     0
  1
1
  0
DICTIONARYVAR
  5
FE
102
{ACAD_REACTORS
330
FB
102
}
330
FB
100
DictionaryVariables
280
     0
  1

  0
ENDSEC
  0
EOF
