  0
SECTION
  2
HEADER
  9
$ACADVER
  1
AC1018
  9
$ACADMAINTVER
 70
     0
  9
$DWGCODEPAGE
  3
ANSI_1257
  9
$INSBASE
 10
0.0
 20
0.0
 30
0.0
  9
$EXTMIN
 10
466093.9709905761
 20
6529601.305965388
 30
0.0
  9
$EXTMAX
 10
467007.9910418386
 20
6530121.186580251
 30
2.37
  9
$LIMMIN
 10
0.0
 20
0.0
  9
$LIMMAX
 10
12.0
 20
9.0
  9
$ORTHOMODE
 70
     0
  9
$REGENMODE
 70
     1
  9
$FILLMODE
 70
     1
  9
$QTEXTMODE
 70
     0
  9
$MIRRTEXT
 70
     1
  9
$LTSCALE
 40
1.0
  9
$ATTMODE
 70
     1
  9
$TEXTSIZE
 40
0.2
  9
$TRACEWID
 40
0.05
  9
$TEXTSTYLE
  7
KOORD
  9
$CLAYER
  8
MÄRK
  9
$CELTYPE
  6
CONTINUOUS
  9
$CECOLOR
 62
   256
  9
$CELTSCALE
 40
1.0
  9
$DISPSILH
 70
     0
  9
$DIMSCALE
 40
1.0
  9
$DIMASZ
 40
0.18
  9
$DIMEXO
 40
0.0625
  9
$DIMDLI
 40
0.38
  9
$DIMRND
 40
0.0
  9
$DIMDLE
 40
0.0
  9
$DIMEXE
 40
0.18
  9
$DIMTP
 40
0.0
  9
$DIMTM
 40
0.0
  9
$DIMTXT
 40
0.18
  9
$DIMCEN
 40
0.09
  9
$DIMTSZ
 40
0.0
  9
$DIMTOL
 70
     0
  9
$DIMLIM
 70
     0
  9
$DIMTIH
 70
     1
  9
$DIMTOH
 70
     1
  9
$DIMSE1
 70
     0
  9
$DIMSE2
 70
     0
  9
$DIMTAD
 70
     0
  9
$DIMZIN
 70
     0
  9
$DIMBLK
  1

  9
$DIMASO
 70
     1
  9
$DIMSHO
 70
     1
  9
$DIMPOST
  1

  9
$DIMAPOST
  1

  9
$DIMALT
 70
     0
  9
$DIMALTD
 70
     2
  9
$DIMALTF
 40
25.4
  9
$DIMLFAC
 40
1.0
  9
$DIMTOFL
 70
     0
  9
$DIMTVP
 40
0.0
  9
$DIMTIX
 70
     0
  9
$DIMSOXD
 70
     0
  9
$DIMSAH
 70
     0
  9
$DIMBLK1
  1

  9
$DIMBLK2
  1

  9
$DIMSTYLE
  2
STANDARD
  9
$DIMCLRD
 70
     0
  9
$DIMCLRE
 70
     0
  9
$DIMCLRT
 70
     0
  9
$DIMTFAC
 40
1.0
  9
$DIMGAP
 40
0.09
  9
$DIMJUST
 70
     0
  9
$DIMSD1
 70
     0
  9
$DIMSD2
 70
     0
  9
$DIMTOLJ
 70
     1
  9
$DIMTZIN
 70
     0
  9
$DIMALTZ
 70
     0
  9
$DIMALTTZ
 70
     0
  9
$DIMUPT
 70
     0
  9
$DIMDEC
 70
     4
  9
$DIMTDEC
 70
     4
  9
$DIMALTU
 70
     2
  9
$DIMALTTD
 70
     2
  9
$DIMTXSTY
  7
STANDARD
  9
$DIMAUNIT
 70
     0
  9
$DIMADEC
 70
     0
  9
$DIMALTRND
 40
0.0
  9
$DIMAZIN
 70
     0
  9
$DIMDSEP
 70
    46
  9
$DIMATFIT
 70
     3
  9
$DIMFRAC
 70
     0
  9
$DIMLDRBLK
  1

  9
$DIMLUNIT
 70
     2
  9
$DIMLWD
 70
    -2
  9
$DIMLWE
 70
    -2
  9
$DIMTMOVE
 70
     0
  9
$LUNITS
 70
     2
  9
$LUPREC
 70
     4
  9
$SKETCHINC
 40
0.1
  9
$FILLETRAD
 40
0.0
  9
$AUNITS
 70
     0
  9
$AUPREC
 70
     0
  9
$MENU
  1
.
  9
$ELEVATION
 40
0.0
  9
$PELEVATION
 40
0.0
  9
$THICKNESS
 40
0.0
  9
$LIMCHECK
 70
     0
  9
$CHAMFERA
 40
0.0
  9
$CHAMFERB
 40
0.0
  9
$CHAMFERC
 40
0.0
  9
$CHAMFERD
 40
0.0
  9
$SKPOLY
 70
     0
  9
$TDCREATE
 40
2444972.334532280
  9
$TDUCREATE
 40
2444972.251198947
  9
$TDUPDATE
 40
2455602.889829294
  9
$TDUUPDATE
 40
2455602.806495961
  9
$TDINDWG
 40
1.1286257176
  9
$TDUSRTIMER
 40
1.1286255324
  9
$USRTIMER
 70
     1
  9
$ANGBASE
 50
0.0
  9
$ANGDIR
 70
     0
  9
$PDMODE
 70
     0
  9
$PDSIZE
 40
0.0
  9
$PLINEWID
 40
0.0
  9
$SPLFRAME
 70
     0
  9
$SPLINETYPE
 70
     6
  9
$SPLINESEGS
 70
     8
  9
$HANDSEED
  5
385
  9
$SURFTAB1
 70
     6
  9
$SURFTAB2
 70
     6
  9
$SURFTYPE
 70
     6
  9
$SURFU
 70
     6
  9
$SURFV
 70
     6
  9
$UCSBASE
  2

  9
$UCSNAME
  2

  9
$UCSORG
 10
0.0
 20
0.0
 30
0.0
  9
$UCSXDIR
 10
1.0
 20
0.0
 30
0.0
  9
$UCSYDIR
 10
0.0
 20
1.0
 30
0.0
  9
$UCSORTHOREF
  2

  9
$UCSORTHOVIEW
 70
     0
  9
$UCSORGTOP
 10
0.0
 20
0.0
 30
0.0
  9
$UCSORGBOTTOM
 10
0.0
 20
0.0
 30
0.0
  9
$UCSORGLEFT
 10
0.0
 20
0.0
 30
0.0
  9
$UCSORGRIGHT
 10
0.0
 20
0.0
 30
0.0
  9
$UCSORGFRONT
 10
0.0
 20
0.0
 30
0.0
  9
$UCSORGBACK
 10
0.0
 20
0.0
 30
0.0
  9
$PUCSBASE
  2

  9
$PUCSNAME
  2

  9
$PUCSORG
 10
0.0
 20
0.0
 30
0.0
  9
$PUCSXDIR
 10
1.0
 20
0.0
 30
0.0
  9
$PUCSYDIR
 10
0.0
 20
1.0
 30
0.0
  9
$PUCSORTHOREF
  2

  9
$PUCSORTHOVIEW
 70
     0
  9
$PUCSORGTOP
 10
0.0
 20
0.0
 30
0.0
  9
$PUCSORGBOTTOM
 10
0.0
 20
0.0
 30
0.0
  9
$PUCSORGLEFT
 10
0.0
 20
0.0
 30
0.0
  9
$PUCSORGRIGHT
 10
0.0
 20
0.0
 30
0.0
  9
$PUCSORGFRONT
 10
0.0
 20
0.0
 30
0.0
  9
$PUCSORGBACK
 10
0.0
 20
0.0
 30
0.0
  9
$USERI1
 70
     1
  9
$USERI2
 70
     1
  9
$USERI3
 70
     0
  9
$USERI4
 70
     0
  9
$USERI5
 70
     0
  9
$USERR1
 40
1.0
  9
$USERR2
 40
0.0
  9
$USERR3
 40
0.0
  9
$USERR4
 40
0.0
  9
$USERR5
 40
0.0
  9
$WORLDVIEW
 70
     1
  9
$SHADEDGE
 70
     3
  9
$SHADEDIF
 70
    70
  9
$TILEMODE
 70
     1
  9
$MAXACTVP
 70
    48
  9
$PINSBASE
 10
0.0
 20
0.0
 30
0.0
  9
$PLIMCHECK
 70
     0
  9
$PEXTMIN
 10
1.000000000000000E+20
 20
1.000000000000000E+20
 30
1.000000000000000E+20
  9
$PEXTMAX
 10
-1.000000000000000E+20
 20
-1.000000000000000E+20
 30
-1.000000000000000E+20
  9
$PLIMMIN
 10
0.0
 20
0.0
  9
$PLIMMAX
 10
12.0
 20
9.0
  9
$UNITMODE
 70
     0
  9
$VISRETAIN
 70
     1
  9
$PLINEGEN
 70
     0
  9
$PSLTSCALE
 70
     1
  9
$TREEDEPTH
 70
  3020
  9
$CMLSTYLE
  2
STANDARD
  9
$CMLJUST
 70
     0
  9
$CMLSCALE
 40
1.0
  9
$PROXYGRAPHICS
 70
     1
  9
$MEASUREMENT
 70
     0
  9
$CELWEIGHT
370
    -1
  9
$ENDCAPS
280
     0
  9
$JOINSTYLE
280
     0
  9
$LWDISPLAY
290
     0
  9
$INSUNITS
 70
     0
  9
$HYPERLINKBASE
  1

  9
$STYLESHEET
  1

  9
$XEDIT
290
     1
  9
$CEPSNTYPE
380
     0
  9
$PSTYLEMODE
290
     1
  9
$FINGERPRINTGUID
  2
{36BBE681-D199-40AB-85C6-32B4B5D38111}
  9
$VERSIONGUID
  2
{26AD3169-9F3C-4949-9B27-B6A770BC5D78}
  9
$EXTNAMES
290
     1
  9
$PSVPSCALE
 40
0.0
  9
$OLESTARTUP
290
     0
  9
$SORTENTS
280
   127
  9
$INDEXCTL
280
     0
  9
$HIDETEXT
280
     1
  9
$XCLIPFRAME
290
     0
  9
$HALOGAP
280
     0
  9
$OBSCOLOR
 70
   257
  9
$OBSLTYPE
280
     0
  9
$INTERSECTIONDISPLAY
280
     0
  9
$INTERSECTIONCOLOR
 70
   257
  9
$DIMASSOC
280
     1
  9
$PROJECTNAME
  1

  0
ENDSEC
  0
SECTION
  2
CLASSES
  0
CLASS
  1
ACDBDICTIONARYWDFLT
  2
AcDbDictionaryWithDefault
  3
ObjectDBX Classes
 90
        0
 91
        1
280
     0
281
     0
  0
CLASS
  1
DICTIONARYVAR
  2
AcDbDictionaryVar
  3
ObjectDBX Classes
 90
        0
 91
        0
280
     0
281
     0
  0
CLASS
  1
SORTENTSTABLE
  2
AcDbSortentsTable
  3
ObjectDBX Classes
 90
        0
 91
        1
280
     0
281
     0
  0
CLASS
  1
IDBUFFER
  2
AcDbIdBuffer
  3
ObjectDBX Classes
 90
        0
 91
        0
280
     0
281
     0
  0
CLASS
  1
RASTERVARIABLES
  2
AcDbRasterVariables
  3
ISM
 90
        0
 91
        0
280
     0
281
     0
  0
CLASS
  1
IMAGEDEF
  2
AcDbRasterImageDef
  3
ISM
 90
        0
 91
        0
280
     0
281
     0
  0
CLASS
  1
IMAGEDEF_REACTOR
  2
AcDbRasterImageDefReactor
  3
ISM
 90
        1
 91
        0
280
     0
281
     0
  0
CLASS
  1
IMAGE
  2
AcDbRasterImage
  3
ISM
 90
      127
 91
        0
280
     0
281
     1
  0
ENDSEC
  0
SECTION
  2
TABLES
  0
TABLE
  2
VPORT
  5
23
330
0
100
AcDbSymbolTable
 70
     3
  0
VPORT
  5
384
330
23
100
AcDbSymbolTableRecord
100
AcDbViewportTableRecord
  2
*Active
 70
     0
 10
0.0
 20
0.0
 11
1.0
 21
1.0
 12
409632.1070261986
 22
6533920.425389347
 13
0.0
 23
0.0
 14
1.0
 24
1.0
 15
0.0
 25
0.0
 16
0.0
 26
0.0
 36
1.0
 17
0.0
 27
0.0
 37
0.0
 40
1391.455270862583
 41
2.133550488599348
 42
50.0
 43
0.0
 44
0.0
 50
0.0
 51
0.4944750653364577
 71
     0
 72
   100
 73
     1
 74
     1
 75
     0
 76
     0
 77
     0
 78
     0
281
     0
 65
     1
110
0.0
120
0.0
130
0.0
111
1.0
121
0.0
131
0.0
112
0.0
122
1.0
132
0.0
 79
     0
146
0.0
  0
ENDTAB
  0
TABLE
  2
LTYPE
  5
1E
330
0
100
AcDbSymbolTable
 70
     4
  0
LTYPE
  5
1F
330
1E
100
AcDbSymbolTableRecord
100
AcDbLinetypeTableRecord
  2
BYBLOCK
 70
     0
  3

 72
    65
 73
     0
 40
0.0
  0
LTYPE
  5
20
330
1E
100
AcDbSymbolTableRecord
100
AcDbLinetypeTableRecord
  2
BYLAYER
 70
     0
  3

 72
    65
 73
     0
 40
0.0
  0
LTYPE
  5
C
330
1E
100
AcDbSymbolTableRecord
100
AcDbLinetypeTableRecord
  2
CONTINUOUS
 70
     0
  3
Solid line
 72
    65
 73
     0
 40
0.0
  0
LTYPE
  5
47
330
1E
100
AcDbSymbolTableRecord
100
AcDbLinetypeTableRecord
  2
ACAD_ISO03W100
 70
     0
  3
ISO dash space __    __    __    __    __    __
 72
    65
 73
     2
 40
30.0
 49
12.0
 74
     0
 49
-18.0
 74
     0
  0
LTYPE
  5
2C0
330
1E
100
AcDbSymbolTableRecord
100
AcDbLinetypeTableRecord
  2
RAUDTEE
 70
     0
  3
__|___|___|___|___|___|___|___|__
 72
    65
 73
     2
 40
5.0
 49
3.0
 74
     4
 75
   140
340
2C5
 46
2.649999999999999
 50
0.0
 44
0.0
 45
-0.5
 49
2.0
 74
     0
  0
LTYPE
  5
2C1
330
1E
100
AcDbSymbolTableRecord
100
AcDbLinetypeTableRecord
  2
KATUSEALL
 70
     0
  3
 Katusealune ___  ___  ___  ___  ___  ___  ___
 72
    65
 73
     3
 40
3.5
 49
1.25
 74
     0
 49
-1.0
 74
     0
 49
1.25
 74
     0
  0
ENDTAB
  0
TABLE
  2
LAYER
  5
17
102
{ACAD_XDICTIONARY
360
18
102
}
330
0
100
AcDbSymbolTable
 70
     3
  0
LAYER
  5
7
330
17
100
AcDbSymbolTableRecord
100
AcDbLayerTableRecord
  2
0
 70
     0
 62
    -7
  6
CONTINUOUS
370
    -3
390
8
1001
RAK
1000
{ACET-LAYISO
1070
     0
1070
     7
1000
CONTINUOUS
1071
       -3
1071
        1
1005
8
1000
ACET-LAYISO}
  0
LAYER
  5
2E
330
17
100
AcDbSymbolTableRecord
100
AcDbLayerTableRecord
  2
MÄRK
 70
     0
 62
     7
  6
CONTINUOUS
370
    -3
390
8
1001
RAK
1000
{ACET-LAYISO
1070
     0
1070
     7
1000
CONTINUOUS
1071
       -3
1071
        1
1005
8
1000
ACET-LAYISO}
  0
LAYER
  5
2C2
102
{ACAD_XDICTIONARY
360
2C3
102
}
330
17
100
AcDbSymbolTableRecord
100
AcDbLayerTableRecord
  2
HOONE
 70
     0
 62
     5
  6
CONTINUOUS
370
     0
390
8
  0
ENDTAB
  0
TABLE
  2
STYLE
  5
1B
330
0
100
AcDbSymbolTable
 70
     3
  0
STYLE
  5
1C
330
1B
100
AcDbSymbolTableRecord
100
AcDbTextStyleTableRecord
  2
STANDARD
 70
     0
 40
0.0
 41
1.0
 50
0.0
 71
     0
 42
0.2
  3
txt
  4

  0
STYLE
  5
2F
330
1B
100
AcDbSymbolTableRecord
100
AcDbTextStyleTableRecord
  2
KOORD
 70
     0
 40
0.2
 41
1.0
 50
0.0
 71
     0
 42
0.2
  3
arialbi.ttf
  4

1001
ACAD
1000
Arial
1071
 50331682
  0
STYLE
  5
2C5
330
1B
100
AcDbSymbolTableRecord
100
AcDbTextStyleTableRecord
  2

 70
     1
 40
0.0
 41
1.0
 50
0.0
 71
     0
 42
2.5
  3
geodeet.shx
  4

  0
ENDTAB
  0
TABLE
  2
VIEW
  5
21
330
0
100
AcDbSymbolTable
 70
     0
  0
ENDTAB
  0
TABLE
  2
UCS
  5
22
330
0
100
AcDbSymbolTable
 70
     0
  0
ENDTAB
  0
TABLE
  2
APPID
  5
25
330
0
100
AcDbSymbolTable
 70
     4
  0
APPID
  5
26
330
25
100
AcDbSymbolTableRecord
100
AcDbRegAppTableRecord
  2
ACAD
 70
     0
  0
APPID
  5
D
330
25
100
AcDbSymbolTableRecord
100
AcDbRegAppTableRecord
  2
RAK
 70
     0
  0
APPID
  5
B
330
25
100
AcDbSymbolTableRecord
100
AcDbRegAppTableRecord
  2
ADE
 70
     0
  0
APPID
  5
2C7
330
25
100
AcDbSymbolTableRecord
100
AcDbRegAppTableRecord
  2
MStation
 70
     0
  0
ENDTAB
  0
TABLE
  2
DIMSTYLE
  5
27
330
0
100
AcDbSymbolTable
 70
     2
100
AcDbDimStyleTable
 71
     0
  0
DIMSTYLE
105
31
330
27
100
AcDbSymbolTableRecord
100
AcDbDimStyleTableRecord
  2
STANDARD
 70
     0
340
1C
  0
DIMSTYLE
105
2C6
330
27
100
AcDbSymbolTableRecord
100
AcDbDimStyleTableRecord
  2
ISO-25
 70
     0
 41
2.5
 42
0.625
 43
3.75
 44
1.25
 74
     0
 77
     1
 78
     8
140
2.5
141
2.5
143
0.0394
145
1.0
147
0.625
172
     1
340
1C
  0
ENDTAB
  0
TABLE
  2
BLOCK_RECORD
  5
1
330
0
100
AcDbSymbolTable
 70
     1
  0
BLOCK_RECORD
  5
2
102
{ACAD_XDICTIONARY
360
3
102
}
330
1
100
AcDbSymbolTableRecord
100
AcDbBlockTableRecord
  2
*MODEL_SPACE
340
F
  0
BLOCK_RECORD
  5
11
102
{ACAD_XDICTIONARY
360
12
102
}
330
1
100
AcDbSymbolTableRecord
100
AcDbBlockTableRecord
  2
*PAPER_SPACE
340
16
  0
ENDTAB
  0
ENDSEC
  0
SECTION
  2
BLOCKS
  0
BLOCK
  5
6
330
2
100
AcDbEntity
  8
0
100
AcDbBlockBegin
  2
*MODEL_SPACE
 70
     0
 10
0.0
 20
0.0
 30
0.0
  3
*MODEL_SPACE
  1

  0
ENDBLK
  5
E
330
2
100
AcDbEntity
  8
0
100
AcDbBlockEnd
  0
BLOCK
  5
14
330
11
100
AcDbEntity
 67
     1
  8
0
100
AcDbBlockBegin
  2
*PAPER_SPACE
 70
     0
 10
0.0
 20
0.0
 30
0.0
  3
*PAPER_SPACE
  1

  0
ENDBLK
  5
15
330
11
100
AcDbEntity
 67
     1
  8
0
100
AcDbBlockEnd
  0
ENDSEC
  0
SECTION
  2
ENTITIES
  0
CIRCLE
  5
33
330
2
100
AcDbEntity
  8
MÄRK
  6
Continuous
100
AcDbCircle
 10
466910.194
 20
6529983.1185
 30
0.0
 40
0.1
  0
LINE
  5
34
330
2
100
AcDbEntity
  8
MÄRK
100
AcDbLine
 10
466910.1875937406
 20
6529985.374896031
 30
0.0
 11
466910.6873397004
 21
6529983.836836118
 31
0.0
  0
LINE
  5
35
330
2
100
AcDbEntity
  8
MÄRK
100
AcDbLine
 10
466912.304551598
 20
6529983.836836118
 30
0.0
 11
466910.9961996894
 21
6529982.886262813
 31
0.0
  0
LINE
  5
36
330
2
100
AcDbEntity
  8
MÄRK
100
AcDbLine
 10
466908.0706358832
 20
6529983.836836118
 30
0.0
 11
466909.6878477808
 21
6529983.836836118
 31
0.0
  0
LINE
  5
37
330
2
100
AcDbEntity
  8
MÄRK
100
AcDbLine
 10
466911.4959456492
 20
6529981.3482029
 30
0.0
 11
466910.1875937406
 21
6529982.298776204
 31
0.0
  0
LINE
  5
38
330
2
100
AcDbEntity
  8
MÄRK
100
AcDbLine
 10
466908.879241832
 20
6529981.3482029
 30
0.0
 11
466909.3789877918
 21
6529982.886262813
 31
0.0
  0
ELLIPSE
  5
39
330
2
100
AcDbEntity
  8
MÄRK
100
AcDbEllipse
 10
466910.1777092973
 20
6529983.136762431
 30
0.0
 11
-0.4628143775125524
 21
0.4628143775125524
 31
0.0
210
0.0
220
0.0
230
0.9999999999999998
 40
0.9999999996062436
 41
3.926990817184119
 42
10.2101761243637
  0
LINE
  5
3A
330
2
100
AcDbEntity
  8
MÄRK
100
AcDbLine
 10
466909.3789877918
 20
6529982.886262813
 30
0.0
 11
466908.0706358832
 21
6529983.836836118
 31
0.0
  0
LINE
  5
3B
330
2
100
AcDbEntity
  8
MÄRK
100
AcDbLine
 10
466909.6878477808
 20
6529983.836836118
 30
0.0
 11
466910.1875937406
 21
6529985.374896031
 31
0.0
  0
LINE
  5
3C
330
2
100
AcDbEntity
  8
MÄRK
100
AcDbLine
 10
466910.6873397004
 20
6529983.836836118
 30
0.0
 11
466912.304551598
 21
6529983.836836118
 31
0.0
  0
LINE
  5
3D
330
2
100
AcDbEntity
  8
MÄRK
100
AcDbLine
 10
466910.9961996894
 20
6529982.886262813
 30
0.0
 11
466911.4959456492
 21
6529981.3482029
 31
0.0
  0
LINE
  5
3E
330
2
100
AcDbEntity
  8
MÄRK
100
AcDbLine
 10
466910.1875937406
 20
6529982.298776204
 30
0.0
 11
466908.879241832
 21
6529981.3482029
 31
0.0
  0
CIRCLE
  5
41
330
2
100
AcDbEntity
  8
MÄRK
  6
Continuous
100
AcDbCircle
 10
466360.9820419369
 20
6530101.47293877
 30
2.37
 40
0.1
  0
CIRCLE
  5
42
330
2
100
AcDbEntity
  8
MÄRK
  6
Continuous
100
AcDbCircle
 10
466504.8166352947
 20
6529981.55883419
 30
0.0
 40
0.1
  0
CIRCLE
  5
43
330
2
100
AcDbEntity
  8
MÄRK
  6
Continuous
100
AcDbCircle
 10
466779.8117027682
 20
6529645.150084287
 30
0.0
 40
0.1
  0
MTEXT
  5
44
330
2
100
AcDbEntity
  8
MÄRK
100
AcDbMText
 10
466782.8689825863
 20
6529646.14401979
 30
0.0
 40
1.9
 41
3.1223
 71
     1
 72
     5
  1
{\fArial|b1|i1|c0|p34;W}
  7
KOORD
 73
     1
 44
1.0
  0
LWPOLYLINE
  5
45
330
2
100
AcDbEntity
  8
MÄRK
  6
Continuous
 62
     7
 48
0.5
100
AcDbPolyline
 90
        2
 70
     0
 43
0.2
 10
466102.7041258704
 20
6529991.875934157
 10
466407.0649407679
 20
6529988.575063295
  0
MTEXT
  5
46
330
2
100
AcDbEntity
  8
MÄRK
  6
ACAD_ISO03W100
 62
     7
 48
0.5
100
AcDbMText
 10
466267.8544228767
 20
6529992.819829828
 30
0.0
 40
1.999999999999999
 41
16.03626582631939
 71
     1
 72
     5
  1
{\fArial|b1|i1|c0|p34;90.1 - 270.1}
  7
KOORD
 11
0.9998476951563912
 21
-0.0174524064372836
 31
0.0
 73
     1
 44
1.0
  0
LINE
  5
48
330
2
100
AcDbEntity
  8
MÄRK
100
AcDbLine
 10
466387.8181657678
 20
6529726.716065701
 30
0.0
 11
466385.7911054893
 21
6529726.716065701
 31
0.0
  0
CIRCLE
  5
49
330
2
100
AcDbEntity
  8
MÄRK
100
AcDbCircle
 10
466385.643769163
 20
6529726.716065701
 30
0.0
 40
0.1473363262785773
  0
LINE
  5
4A
330
2
100
AcDbEntity
  8
MÄRK
100
AcDbLine
 10
466385.0932555392
 20
6529731.750134009
 30
0.0
 11
466386.4355935301
 21
6529728.148862194
 31
0.0
  0
LINE
  5
4B
330
2
100
AcDbEntity
  8
MÄRK
100
AcDbLine
 10
466383.9651984373
 20
6529731.463168014
 30
0.0
 11
466384.4384305452
 21
6529728.148862194
 31
0.0
  0
ARC
  5
4C
330
2
100
AcDbEntity
  8
MÄRK
100
AcDbCircle
 10
466384.5377041647
 20
6529731.573327414
 30
0.0
 40
0.5830076342262932
100
AcDbArc
 50
17.65389346118273
 51
190.8915246333975
  0
SPLINE
  5
4D
330
2
100
AcDbEntity
  8
MÄRK
100
AcDbSpline
210
0.0
220
0.0
230
1.0
 70
     8
 71
     3
 72
     9
 73
     5
 74
     3
 42
0.0000000001
 43
0.0000000001
 44
0.0000000001
 40
0.0
 40
0.0
 40
0.0
 40
0.0
 40
0.9116309236337651
 40
1.787830187955429
 40
1.787830187955429
 40
1.787830187955429
 40
1.787830187955429
 10
466387.4830967485
 20
6529726.716065701
 30
0.0
 10
466387.2610362109
 20
6529726.927579314
 30
0.0
 10
466386.825545792
 20
6529727.342385806
 30
0.0
 10
466386.5638488257
 20
6529727.883612117
 30
0.0
 10
466386.4355935301
 20
6529728.148862194
 30
0.0
 11
466387.4830967485
 21
6529726.716065701
 31
0.0
 11
466386.8621027043
 21
6529727.383476621
 31
0.0
 11
466386.4355935301
 21
6529728.148862194
 31
0.0
  0
SPLINE
  5
4E
330
2
100
AcDbEntity
  8
MÄRK
100
AcDbSpline
210
0.0
220
0.0
230
1.0
 70
     8
 71
     3
 72
     9
 73
     5
 74
     3
 42
0.0000000001
 43
0.0000000001
 44
0.0000000001
 40
0.0
 40
0.0
 40
0.0
 40
0.0
 40
0.9778481713454674
 40
1.637901898796386
 40
1.637901898796386
 40
1.637901898796386
 40
1.637901898796386
 10
466384.4384305452
 20
6529728.148862194
 30
0.0
 10
466384.5004131239
 20
6529727.792792384
 30
0.0
 10
466384.604234337
 20
6529727.196373187
 30
0.0
 10
466384.131360867
 20
6529726.854026913
 30
0.0
 10
466383.9407988457
 20
6529726.716065701
 30
0.0
 11
466384.4384305452
 21
6529728.148862194
 31
0.0
 11
466384.4188303877
 21
6529727.171210477
 31
0.0
 11
466383.9407988457
 21
6529726.716065701
 31
0.0
  0
TEXT
  5
4F
330
2
100
AcDbEntity
  8
MÄRK
100
AcDbText
 10
466383.7103714153
 20
6529724.234273938
 30
0.0
 40
2.0
  1
R
  7
KOORD
100
AcDbText
  0
LINE
  5
50
330
2
100
AcDbEntity
  8
MÄRK
100
AcDbLine
 10
466385.4964328367
 20
6529726.716065701
 30
0.0
 11
466383.6752257714
 21
6529726.716065701
 31
0.0
  0
LWPOLYLINE
  5
51
330
2
100
AcDbEntity
  8
MÄRK
  6
ACAD_ISO03W100
 62
     7
 48
0.5
100
AcDbPolyline
 90
        2
 70
     0
 43
0.2
 10
467001.7657909176
 20
6529982.125380514
 10
466407.0649407679
 20
6529988.575063295
  0
LINE
  5
52
330
2
100
AcDbEntity
  8
MÄRK
100
AcDbLine
 10
466438.9627208049
 20
6529620.0788896
 30
0.0
 11
466436.9356605264
 21
6529620.0788896
 31
0.0
  0
CIRCLE
  5
53
330
2
100
AcDbEntity
  8
MÄRK
100
AcDbCircle
 10
466436.7883242
 20
6529620.0788896
 30
0.0
 40
0.1473363262785773
  0
LINE
  5
54
330
2
100
AcDbEntity
  8
MÄRK
100
AcDbLine
 10
466436.2378105763
 20
6529625.112957909
 30
0.0
 11
466437.5801485671
 21
6529621.511686094
 31
0.0
  0
LINE
  5
55
330
2
100
AcDbEntity
  8
MÄRK
100
AcDbLine
 10
466435.1097534744
 20
6529624.825991914
 30
0.0
 11
466435.5829855824
 21
6529621.511686094
 31
0.0
  0
ARC
  5
56
330
2
100
AcDbEntity
  8
MÄRK
100
AcDbCircle
 10
466435.6822592018
 20
6529624.936151314
 30
0.0
 40
0.5830076342262932
100
AcDbArc
 50
17.65389346118273
 51
190.8915246333975
  0
SPLINE
  5
57
330
2
100
AcDbEntity
  8
MÄRK
100
AcDbSpline
210
0.0
220
0.0
230
1.0
 70
     8
 71
     3
 72
     9
 73
     5
 74
     3
 42
0.0000000001
 43
0.0000000001
 44
0.0000000001
 40
0.0
 40
0.0
 40
0.0
 40
0.0
 40
0.9116309236337651
 40
1.787830187955429
 40
1.787830187955429
 40
1.787830187955429
 40
1.787830187955429
 10
466438.6276517857
 20
6529620.0788896
 30
0.0
 10
466438.405591248
 20
6529620.290403214
 30
0.0
 10
466437.9701008291
 20
6529620.705209707
 30
0.0
 10
466437.7084038629
 20
6529621.246436017
 30
0.0
 10
466437.5801485671
 20
6529621.511686094
 30
0.0
 11
466438.6276517857
 21
6529620.0788896
 31
0.0
 11
466438.0066577414
 21
6529620.746300521
 31
0.0
 11
466437.5801485671
 21
6529621.511686094
 31
0.0
  0
SPLINE
  5
58
330
2
100
AcDbEntity
  8
MÄRK
100
AcDbSpline
210
0.0
220
0.0
230
1.0
 70
     8
 71
     3
 72
     9
 73
     5
 74
     3
 42
0.0000000001
 43
0.0000000001
 44
0.0000000001
 40
0.0
 40
0.0
 40
0.0
 40
0.0
 40
0.9778481713454674
 40
1.637901898796386
 40
1.637901898796386
 40
1.637901898796386
 40
1.637901898796386
 10
466435.5829855824
 20
6529621.511686094
 30
0.0
 10
466435.644968161
 20
6529621.155616283
 30
0.0
 10
466435.7487893741
 20
6529620.559197087
 30
0.0
 10
466435.2759159041
 20
6529620.216850814
 30
0.0
 10
466435.0853538828
 20
6529620.0788896
 30
0.0
 11
466435.5829855824
 21
6529621.511686094
 31
0.0
 11
466435.5633854248
 21
6529620.534034377
 31
0.0
 11
466435.0853538828
 21
6529620.0788896
 31
0.0
  0
TEXT
  5
59
330
2
100
AcDbEntity
  8
MÄRK
100
AcDbText
 10
466434.8549264524
 20
6529617.597097839
 30
0.0
 40
2.0
  1
G
  7
KOORD
100
AcDbText
  0
LINE
  5
5A
330
2
100
AcDbEntity
  8
MÄRK
100
AcDbLine
 10
466436.6409878738
 20
6529620.0788896
 30
0.0
 11
466434.8197808085
 21
6529620.0788896
 31
0.0
  0
LINE
  5
5B
330
2
100
AcDbEntity
  8
MÄRK
100
AcDbLine
 10
466283.3530155049
 20
6529631.0870114
 30
0.0
 11
466281.3259552264
 21
6529631.0870114
 31
0.0
  0
CIRCLE
  5
5C
330
2
100
AcDbEntity
  8
MÄRK
100
AcDbCircle
 10
466281.1786189
 20
6529631.0870114
 30
0.0
 40
0.1473363262785773
  0
LINE
  5
5D
330
2
100
AcDbEntity
  8
MÄRK
100
AcDbLine
 10
466280.6281052763
 20
6529636.12107971
 30
0.0
 11
466281.9704432671
 21
6529632.519807895
 31
0.0
  0
LINE
  5
5E
330
2
100
AcDbEntity
  8
MÄRK
100
AcDbLine
 10
466279.5000481743
 20
6529635.834113714
 30
0.0
 11
466279.9732802823
 21
6529632.519807895
 31
0.0
  0
ARC
  5
5F
330
2
100
AcDbEntity
  8
MÄRK
100
AcDbCircle
 10
466280.0725539018
 20
6529635.944273116
 30
0.0
 40
0.5830076342262932
100
AcDbArc
 50
17.65389346118273
 51
190.8915246333975
  0
SPLINE
  5
60
330
2
100
AcDbEntity
  8
MÄRK
100
AcDbSpline
210
0.0
220
0.0
230
1.0
 70
     8
 71
     3
 72
     9
 73
     5
 74
     3
 42
0.0000000001
 43
0.0000000001
 44
0.0000000001
 40
0.0
 40
0.0
 40
0.0
 40
0.0
 40
0.9116309236337651
 40
1.787830187955429
 40
1.787830187955429
 40
1.787830187955429
 40
1.787830187955429
 10
466283.0179464857
 20
6529631.0870114
 30
0.0
 10
466282.7958859479
 20
6529631.298525015
 30
0.0
 10
466282.3603955291
 20
6529631.713331507
 30
0.0
 10
466282.0986985627
 20
6529632.254557818
 30
0.0
 10
466281.9704432671
 20
6529632.519807895
 30
0.0
 11
466283.0179464857
 21
6529631.0870114
 31
0.0
 11
466282.3969524414
 21
6529631.754422322
 31
0.0
 11
466281.9704432671
 21
6529632.519807895
 31
0.0
  0
SPLINE
  5
61
330
2
100
AcDbEntity
  8
MÄRK
100
AcDbSpline
210
0.0
220
0.0
230
1.0
 70
     8
 71
     3
 72
     9
 73
     5
 74
     3
 42
0.0000000001
 43
0.0000000001
 44
0.0000000001
 40
0.0
 40
0.0
 40
0.0
 40
0.0
 40
0.9778481713454674
 40
1.637901898796386
 40
1.637901898796386
 40
1.637901898796386
 40
1.637901898796386
 10
466279.9732802823
 20
6529632.519807895
 30
0.0
 10
466280.0352628609
 20
6529632.163738084
 30
0.0
 10
466280.139084074
 20
6529631.567318888
 30
0.0
 10
466279.6662106039
 20
6529631.224972614
 30
0.0
 10
466279.4756485828
 20
6529631.0870114
 30
0.0
 11
466279.9732802823
 21
6529632.519807895
 31
0.0
 11
466279.9536801247
 21
6529631.542156177
 31
0.0
 11
466279.4756485828
 21
6529631.0870114
 31
0.0
  0
TEXT
  5
62
330
2
100
AcDbEntity
  8
MÄRK
100
AcDbText
 10
466279.2452211523
 20
6529628.605219638
 30
0.0
 40
2.0
  1
G
  7
KOORD
100
AcDbText
  0
LINE
  5
63
330
2
100
AcDbEntity
  8
MÄRK
100
AcDbLine
 10
466281.0312825737
 20
6529631.0870114
 30
0.0
 11
466279.2100755084
 21
6529631.0870114
 31
0.0
  0
LINE
  5
64
330
2
100
AcDbEntity
  8
MÄRK
100
AcDbLine
 10
466502.7187723974
 20
6529982.258320008
 30
0.0
 11
466502.7376226968
 21
6529982.277170307
 31
0.0
  0
LINE
  5
65
330
2
100
AcDbEntity
  8
MÄRK
100
AcDbLine
 10
466502.8211600846
 20
6529982.183930999
 30
0.0
 11
466502.9143993929
 21
6529982.277170306
 31
0.0
  0
LINE
  5
66
330
2
100
AcDbEntity
  8
MÄRK
100
AcDbLine
 10
466502.9235477703
 20
6529982.10954199
 30
0.0
 11
466503.0911760879
 21
6529982.277170307
 31
0.0
  0
LINE
  5
67
330
2
100
AcDbEntity
  8
MÄRK
100
AcDbLine
 10
466503.0259354571
 20
6529982.035152981
 30
0.0
 11
466503.267952783
 21
6529982.277170307
 31
0.0
  0
LINE
  5
68
330
2
100
AcDbEntity
  8
MÄRK
100
AcDbLine
 10
466503.1283231433
 20
6529981.960763972
 30
0.0
 11
466503.4447294782
 21
6529982.277170307
 31
0.0
  0
LINE
  5
69
330
2
100
AcDbEntity
  8
MÄRK
100
AcDbLine
 10
466504.7265171394
 20
6529983.558957968
 30
0.0
 11
466504.8522121575
 21
6529983.684652986
 31
0.0
  0
LINE
  5
6A
330
2
100
AcDbEntity
  8
MÄRK
100
AcDbLine
 10
466503.23071083
 20
6529981.886374963
 30
0.0
 11
466503.6215061741
 21
6529982.277170306
 31
0.0
  0
LINE
  5
6B
330
2
100
AcDbEntity
  8
MÄRK
100
AcDbLine
 10
466504.6414335887
 20
6529983.297097722
 30
0.0
 11
466504.8955643927
 21
6529983.551228525
 31
0.0
  0
LINE
  5
6C
330
2
100
AcDbEntity
  8
MÄRK
100
AcDbLine
 10
466503.3330985163
 20
6529981.811985955
 30
0.0
 11
466503.7982828692
 21
6529982.277170307
 31
0.0
  0
LINE
  5
6D
330
2
100
AcDbEntity
  8
MÄRK
100
AcDbLine
 10
466504.5563500365
 20
6529983.035237474
 30
0.0
 11
466504.9389166278
 21
6529983.417804067
 31
0.0
  0
LINE
  5
6E
330
2
100
AcDbEntity
  8
MÄRK
100
AcDbLine
 10
466503.435486203
 20
6529981.737596946
 30
0.0
 11
466503.9750595642
 21
6529982.277170307
 31
0.0
  0
LINE
  5
6F
330
2
100
AcDbEntity
  8
MÄRK
100
AcDbLine
 10
466504.4712664843
 20
6529982.773377227
 30
0.0
 11
466504.9822688628
 21
6529983.284379605
 31
0.0
  0
LINE
  5
70
330
2
100
AcDbEntity
  8
MÄRK
100
AcDbLine
 10
466503.5378738902
 20
6529981.663207938
 30
0.0
 11
466504.1518362593
 21
6529982.277170307
 31
0.0
  0
LINE
  5
71
330
2
100
AcDbEntity
  8
MÄRK
100
AcDbLine
 10
466504.3861829322
 20
6529982.51151698
 30
0.0
 11
466505.025621098
 21
6529983.150955146
 31
0.0
  0
LINE
  5
72
330
2
100
AcDbEntity
  8
MÄRK
100
AcDbLine
 10
466503.640261577
 20
6529981.588818928
 30
0.0
 11
466505.0689733336
 21
6529983.017530684
 31
0.0
  0
LINE
  5
73
330
2
100
AcDbEntity
  8
MÄRK
100
AcDbLine
 10
466503.7426492627
 20
6529981.51442992
 30
0.0
 11
466505.1123255682
 21
6529982.884106224
 31
0.0
  0
LINE
  5
74
330
2
100
AcDbEntity
  8
MÄRK
100
AcDbLine
 10
466503.8450369495
 20
6529981.44004091
 30
0.0
 11
466504.1742140394
 21
6529981.769218001
 31
0.0
  0
LINE
  5
75
330
2
100
AcDbEntity
  8
MÄRK
100
AcDbLine
 10
466504.6077792193
 20
6529982.20278318
 30
0.0
 11
466505.1556778023
 21
6529982.750681763
 31
0.0
  0
LINE
  5
76
330
2
100
AcDbEntity
  8
MÄRK
100
AcDbLine
 10
466503.9474246362
 20
6529981.365651902
 30
0.0
 11
466504.1455184114
 21
6529981.563745677
 31
0.0
  0
LINE
  5
77
330
2
100
AcDbEntity
  8
MÄRK
100
AcDbLine
 10
466504.8132515419
 20
6529982.231478808
 30
0.0
 11
466505.1990300375
 21
6529982.617257304
 31
0.0
  0
LINE
  5
78
330
2
100
AcDbEntity
  8
MÄRK
100
AcDbLine
 10
466503.9607651732
 20
6529981.202215744
 30
0.0
 11
466504.1673809215
 21
6529981.408831493
 31
0.0
  0
LINE
  5
79
330
2
100
AcDbEntity
  8
MÄRK
100
AcDbLine
 10
466504.9681657278
 20
6529982.209616298
 30
0.0
 11
466505.2423822731
 21
6529982.483832843
 31
0.0
  0
LINE
  5
7A
330
2
100
AcDbEntity
  8
MÄRK
100
AcDbLine
 10
466503.875681621
 20
6529980.940355496
 30
0.0
 11
466504.2162341
 21
6529981.280907975
 31
0.0
  0
LINE
  5
7B
330
2
100
AcDbEntity
  8
MÄRK
100
AcDbLine
 10
466505.0960892443
 20
6529982.16076312
 30
0.0
 11
466505.2857345082
 21
6529982.350408383
 31
0.0
  0
LINE
  5
7C
330
2
100
AcDbEntity
  8
MÄRK
100
AcDbLine
 10
466503.7905980684
 20
6529980.678495249
 30
0.0
 11
466504.2850574073
 21
6529981.172954587
 31
0.0
  0
LINE
  5
7D
330
2
100
AcDbEntity
  8
MÄRK
100
AcDbLine
 10
466505.2040426322
 20
6529982.091939813
 30
0.0
 11
466505.3892731267
 21
6529982.277170307
 31
0.0
  0
LINE
  5
7E
330
2
100
AcDbEntity
  8
MÄRK
100
AcDbLine
 10
466503.7055145162
 20
6529980.416635001
 30
0.0
 11
466504.3713046885
 21
6529981.082425173
 31
0.0
  0
LINE
  5
7F
330
2
100
AcDbEntity
  8
MÄRK
100
AcDbLine
 10
466505.2945720464
 20
6529982.005692532
 30
0.0
 11
466505.5660498217
 21
6529982.277170307
 31
0.0
  0
LINE
  5
80
330
2
100
AcDbEntity
  8
MÄRK
100
AcDbLine
 10
466503.6204309645
 20
6529980.154774754
 30
0.0
 11
466504.4747252752
 21
6529981.009069065
 31
0.0
  0
LINE
  5
81
330
2
100
AcDbEntity
  8
MÄRK
100
AcDbLine
 10
466505.3679281552
 20
6529981.902271945
 30
0.0
 11
466505.7428265177
 21
6529982.277170306
 31
0.0
  0
LINE
  5
82
330
2
100
AcDbEntity
  8
MÄRK
100
AcDbLine
 10
466503.5353474114
 20
6529979.892914505
 30
0.0
 11
466504.5971922893
 21
6529980.954759383
 31
0.0
  0
LINE
  5
83
330
2
100
AcDbEntity
  8
MÄRK
100
AcDbLine
 10
466505.4222378368
 20
6529981.779804931
 30
0.0
 11
466505.9196032127
 21
6529982.277170307
 31
0.0
  0
LINE
  5
84
330
2
100
AcDbEntity
  8
MÄRK
100
AcDbLine
 10
466503.8902086043
 20
6529980.070999004
 30
0.0
 11
466504.7441652357
 21
6529980.924955634
 31
0.0
  0
LINE
  5
85
330
2
100
AcDbEntity
  8
MÄRK
100
AcDbLine
 10
466505.452041585
 20
6529981.632831984
 30
0.0
 11
466506.0963799078
 21
6529982.277170307
 31
0.0
  0
LINE
  5
86
330
2
100
AcDbEntity
  8
MÄRK
100
AcDbLine
 10
466504.5366590135
 20
6529980.540672718
 30
0.0
 11
466504.9320425018
 21
6529980.936056205
 31
0.0
  0
LINE
  5
87
330
2
100
AcDbEntity
  8
MÄRK
100
AcDbLine
 10
466505.4409410139
 20
6529981.444954718
 30
0.0
 11
466506.2731566028
 21
6529982.277170307
 31
0.0
  0
LINE
  5
88
330
2
100
AcDbEntity
  8
MÄRK
100
AcDbLine
 10
466504.8689138158
 20
6529980.696150825
 30
0.0
 11
466506.4499332989
 21
6529982.277170306
 31
0.0
  0
LINE
  5
89
330
2
100
AcDbEntity
  8
MÄRK
100
AcDbLine
 10
466504.9713015025
 20
6529980.621761816
 30
0.0
 11
466505.6325523886
 21
6529981.283012702
 31
0.0
  0
LINE
  5
8A
330
2
100
AcDbEntity
  8
MÄRK
100
AcDbLine
 10
466505.8295598375
 20
6529981.48002015
 30
0.0
 11
466506.6267099939
 21
6529982.277170307
 31
0.0
  0
LINE
  5
8B
330
2
100
AcDbEntity
  8
MÄRK
100
AcDbLine
 10
466505.0736891893
 20
6529980.547372807
 30
0.0
 11
466505.6759046237
 21
6529981.149588242
 31
0.0
  0
LINE
  5
8C
330
2
100
AcDbEntity
  8
MÄRK
100
AcDbLine
 10
466506.4760102509
 20
6529981.949693868
 30
0.0
 11
466506.803486689
 21
6529982.277170307
 31
0.0
  0
LINE
  5
8D
330
2
100
AcDbEntity
  8
MÄRK
100
AcDbLine
 10
466505.176076876
 20
6529980.472983798
 30
0.0
 11
466505.7192568588
 21
6529981.01616378
 31
0.0
  0
LINE
  5
8E
330
2
100
AcDbEntity
  8
MÄRK
100
AcDbLine
 10
466505.2784645618
 20
6529980.398594789
 30
0.0
 11
466505.7626090944
 21
6529980.882739321
 31
0.0
  0
LINE
  5
8F
330
2
100
AcDbEntity
  8
MÄRK
100
AcDbLine
 10
466505.380852249
 20
6529980.32420578
 30
0.0
 11
466505.8059613295
 21
6529980.749314861
 31
0.0
  0
LINE
  5
90
330
2
100
AcDbEntity
  8
MÄRK
100
AcDbLine
 10
466505.4832399357
 20
6529980.249816773
 30
0.0
 11
466505.8493135646
 21
6529980.615890401
 31
0.0
  0
LINE
  5
91
330
2
100
AcDbEntity
  8
MÄRK
100
AcDbLine
 10
466505.5856276214
 20
6529980.175427763
 30
0.0
 11
466505.8926657993
 21
6529980.482465941
 31
0.0
  0
LINE
  5
92
330
2
100
AcDbEntity
  8
MÄRK
100
AcDbLine
 10
466505.6880153087
 20
6529980.101038754
 30
0.0
 11
466505.9360180353
 21
6529980.349041481
 31
0.0
  0
LINE
  5
93
330
2
100
AcDbEntity
  8
MÄRK
100
AcDbLine
 10
466505.7904029954
 20
6529980.026649745
 30
0.0
 11
466505.9793702699
 21
6529980.21561702
 31
0.0
  0
LINE
  5
94
330
2
100
AcDbEntity
  8
MÄRK
100
AcDbLine
 10
466505.8927906821
 20
6529979.952260738
 30
0.0
 11
466506.0227225046
 21
6529980.082192561
 31
0.0
  0
LINE
  5
95
330
2
100
AcDbEntity
  8
MÄRK
100
AcDbLine
 10
466505.9951783685
 20
6529979.877871729
 30
0.0
 11
466506.0660747392
 21
6529979.9487681
 31
0.0
  0
LINE
  5
96
330
2
100
AcDbEntity
  8
MÄRK
100
AcDbLine
 10
466506.0975660556
 20
6529979.80348272
 30
0.0
 11
466506.1094269748
 21
6529979.815343639
 31
0.0
  0
LINE
  5
97
330
2
100
AcDbEntity
  8
MÄRK
100
AcDbLine
 10
466358.8829445234
 20
6530102.173321515
 30
2.37
 11
466358.900897895
 21
6530102.191274887
 31
2.37
  0
LINE
  5
98
330
2
100
AcDbEntity
  8
MÄRK
100
AcDbLine
 10
466358.9853322096
 20
6530102.098932506
 30
2.37
 11
466359.0776745901
 21
6530102.191274887
 31
2.37
  0
LINE
  5
99
330
2
100
AcDbEntity
  8
MÄRK
100
AcDbLine
 10
466359.0877198963
 20
6530102.024543498
 30
2.37
 11
466359.2544512856
 21
6530102.191274887
 31
2.37
  0
LINE
  5
9A
330
2
100
AcDbEntity
  8
MÄRK
100
AcDbLine
 10
466359.1901075831
 20
6530101.950154489
 30
2.37
 11
466359.4312279807
 21
6530102.191274887
 31
2.37
  0
LINE
  5
9B
330
2
100
AcDbEntity
  8
MÄRK
100
AcDbLine
 10
466359.2924952693
 20
6530101.875765479
 30
2.37
 11
466359.6080046762
 21
6530102.191274887
 31
2.37
  0
LINE
  5
9C
330
2
100
AcDbEntity
  8
MÄRK
100
AcDbLine
 10
466360.892949658
 20
6530103.476219868
 30
2.37
 11
466361.0170960907
 21
6530103.600366302
 31
2.37
  0
LINE
  5
9D
330
2
100
AcDbEntity
  8
MÄRK
100
AcDbLine
 10
466359.394882956
 20
6530101.801376471
 30
2.37
 11
466359.7847813712
 21
6530102.191274887
 31
2.37
  0
LINE
  5
9E
330
2
100
AcDbEntity
  8
MÄRK
100
AcDbLine
 10
466360.8078661062
 20
6530103.214359622
 30
2.37
 11
466361.0604483248
 21
6530103.466941841
 31
2.37
  0
LINE
  5
9F
330
2
100
AcDbEntity
  8
MÄRK
100
AcDbLine
 10
466359.4972706433
 20
6530101.726987465
 30
2.37
 11
466359.9615580663
 21
6530102.191274887
 31
2.37
  0
LINE
  5
A0
330
2
100
AcDbEntity
  8
MÄRK
100
AcDbLine
 10
466360.7227825536
 20
6530102.952499374
 30
2.37
 11
466361.1038005599
 21
6530103.33351738
 31
2.37
  0
LINE
  5
A1
330
2
100
AcDbEntity
  8
MÄRK
100
AcDbLine
 10
466359.5996583295
 20
6530101.652598456
 30
2.37
 11
466360.1383347618
 21
6530102.191274887
 31
2.37
  0
LINE
  5
A2
330
2
100
AcDbEntity
  8
MÄRK
100
AcDbLine
 10
466360.6376990023
 20
6530102.690639126
 30
2.37
 11
466361.147152795
 21
6530103.200092922
 31
2.37
  0
LINE
  5
A3
330
2
100
AcDbEntity
  8
MÄRK
100
AcDbLine
 10
466359.7020460158
 20
6530101.578209445
 30
2.37
 11
466360.3151114574
 21
6530102.191274887
 31
2.37
  0
LINE
  5
A4
330
2
100
AcDbEntity
  8
MÄRK
100
AcDbLine
 10
466360.5526154507
 20
6530102.42877888
 30
2.37
 11
466361.1905050306
 21
6530103.06666846
 31
2.37
  0
LINE
  5
A5
330
2
100
AcDbEntity
  8
MÄRK
100
AcDbLine
 10
466359.8044337025
 20
6530101.503820437
 30
2.37
 11
466361.2338572657
 21
6530102.933244001
 31
2.37
  0
LINE
  5
A6
330
2
100
AcDbEntity
  8
MÄRK
100
AcDbLine
 10
466359.9068213892
 20
6530101.429431429
 30
2.37
 11
466361.2772095008
 21
6530102.799819539
 31
2.37
  0
LINE
  5
A7
330
2
100
AcDbEntity
  8
MÄRK
100
AcDbLine
 10
466360.0092090755
 20
6530101.35504242
 30
2.37
 11
466360.3405772177
 21
6530101.686410562
 31
2.37
  0
LINE
  5
A8
330
2
100
AcDbEntity
  8
MÄRK
100
AcDbLine
 10
466360.7700978793
 20
6530102.115931224
 30
2.37
 11
466361.3205617359
 21
6530102.66639508
 31
2.37
  0
LINE
  5
A9
330
2
100
AcDbEntity
  8
MÄRK
100
AcDbLine
 10
466360.1115967627
 20
6530101.280653411
 30
2.37
 11
466360.3108857143
 21
6530101.479942362
 31
2.37
  0
LINE
  5
AA
330
2
100
AcDbEntity
  8
MÄRK
100
AcDbLine
 10
466360.9765660786
 20
6530102.145622727
 30
2.37
 11
466361.363913971
 21
6530102.532970619
 31
2.37
  0
LINE
  5
AB
330
2
100
AcDbEntity
  8
MÄRK
100
AcDbLine
 10
466360.1271976903
 20
6530101.119477643
 30
2.37
 11
466360.3323415909
 21
6530101.324621544
 31
2.37
  0
LINE
  5
AC
330
2
100
AcDbEntity
  8
MÄRK
100
AcDbLine
 10
466361.1318868972
 20
6530102.12416685
 30
2.37
 11
466361.4072662061
 21
6530102.399546159
 31
2.37
  0
LINE
  5
AD
330
2
100
AcDbEntity
  8
MÄRK
100
AcDbLine
 10
466360.0421141377
 20
6530100.857617396
 30
2.37
 11
466360.3809246561
 21
6530101.196427914
 31
2.37
  0
LINE
  5
AE
330
2
100
AcDbEntity
  8
MÄRK
100
AcDbLine
 10
466361.260080527
 20
6530102.075583786
 30
2.37
 11
466361.4506184412
 21
6530102.2661217
 31
2.37
  0
LINE
  5
AF
330
2
100
AcDbEntity
  8
MÄRK
100
AcDbLine
 10
466359.9570305859
 20
6530100.59575715
 30
2.37
 11
466360.449527958
 21
6530101.088254521
 31
2.37
  0
LINE
  5
B0
330
2
100
AcDbEntity
  8
MÄRK
100
AcDbLine
 10
466361.3682539202
 20
6530102.006980484
 30
2.37
 11
466361.5525483242
 21
6530102.191274887
 31
2.37
  0
LINE
  5
B1
330
2
100
AcDbEntity
  8
MÄRK
100
AcDbLine
 10
466359.8719470352
 20
6530100.333896903
 30
2.37
 11
466360.5355705735
 21
6530100.997520442
 31
2.37
  0
LINE
  5
B2
330
2
100
AcDbEntity
  8
MÄRK
100
AcDbLine
 10
466361.4589880006
 20
6530101.920937868
 30
2.37
 11
466361.7293250197
 21
6530102.191274887
 31
2.37
  0
LINE
  5
B3
330
2
100
AcDbEntity
  8
MÄRK
100
AcDbLine
 10
466359.786863483
 20
6530100.072036656
 30
2.37
 11
466360.6387778012
 21
6530100.923950973
 31
2.37
  0
LINE
  5
B4
330
2
100
AcDbEntity
  8
MÄRK
100
AcDbLine
 10
466361.5325574684
 20
6530101.817730639
 30
2.37
 11
466361.9061017148
 21
6530102.191274887
 31
2.37
  0
LINE
  5
B5
330
2
100
AcDbEntity
  8
MÄRK
100
AcDbLine
 10
466359.7017799308
 20
6530099.810176408
 30
2.37
 11
466360.760992899
 21
6530100.869389375
 31
2.37
  0
LINE
  5
B6
330
2
100
AcDbEntity
  8
MÄRK
100
AcDbLine
 10
466361.5871190653
 20
6530101.695515542
 30
2.37
 11
466362.0828784099
 21
6530102.191274887
 31
2.37
  0
LINE
  5
B7
330
2
100
AcDbEntity
  8
MÄRK
100
AcDbLine
 10
466360.047820813
 20
6530099.979440595
 30
2.37
 11
466360.9076109915
 21
6530100.839230774
 31
2.37
  0
LINE
  5
B8
330
2
100
AcDbEntity
  8
MÄRK
100
AcDbLine
 10
466361.6172776679
 20
6530101.548897449
 30
2.37
 11
466362.2596551054
 21
6530102.191274887
 31
2.37
  0
LINE
  5
B9
330
2
100
AcDbEntity
  8
MÄRK
100
AcDbLine
 10
466360.6942712245
 20
6530100.44911431
 30
2.37
 11
466361.0947715798
 21
6530100.849614666
 31
2.37
  0
LINE
  5
BA
330
2
100
AcDbEntity
  8
MÄRK
100
AcDbLine
 10
466361.6068937755
 20
6530101.361736861
 30
2.37
 11
466362.4364318009
 21
6530102.191274887
 31
2.37
  0
LINE
  5
BB
330
2
100
AcDbEntity
  8
MÄRK
100
AcDbLine
 10
466361.0330859418
 20
6530100.611152333
 30
2.37
 11
466362.613208496
 21
6530102.191274887
 31
2.37
  0
LINE
  5
BC
330
2
100
AcDbEntity
  8
MÄRK
100
AcDbLine
 10
466361.1354736285
 20
6530100.536763324
 30
2.37
 11
466361.7974363216
 21
6530101.198726018
 31
2.37
  0
LINE
  5
BD
330
2
100
AcDbEntity
  8
MÄRK
100
AcDbLine
 10
466361.9871720499
 20
6530101.388461746
 30
2.37
 11
466362.7899851911
 21
6530102.191274887
 31
2.37
  0
LINE
  5
BE
330
2
100
AcDbEntity
  8
MÄRK
100
AcDbLine
 10
466361.2378613147
 20
6530100.462374315
 30
2.37
 11
466361.8407885558
 21
6530101.065301557
 31
2.37
  0
LINE
  5
BF
330
2
100
AcDbEntity
  8
MÄRK
100
AcDbLine
 10
466362.6336224629
 20
6530101.858135464
 30
2.37
 11
466362.9667618866
 21
6530102.191274887
 31
2.37
  0
LINE
  5
C0
330
2
100
AcDbEntity
  8
MÄRK
100
AcDbLine
 10
466361.3402490015
 20
6530100.387985307
 30
2.37
 11
466361.8841407923
 21
6530100.931877098
 31
2.37
  0
LINE
  5
C1
330
2
100
AcDbEntity
  8
MÄRK
100
AcDbLine
 10
466361.4426366883
 20
6530100.313596298
 30
2.37
 11
466361.9274930274
 21
6530100.798452637
 31
2.37
  0
LINE
  5
C2
330
2
100
AcDbEntity
  8
MÄRK
100
AcDbLine
 10
466361.5450243741
 20
6530100.239207288
 30
2.37
 11
466361.9708452616
 21
6530100.665028176
 31
2.37
  0
LINE
  5
C3
330
2
100
AcDbEntity
  8
MÄRK
100
AcDbLine
 10
466361.6474120617
 20
6530100.164818281
 30
2.37
 11
466362.0141974967
 21
6530100.531603716
 31
2.37
  0
LINE
  5
C4
330
2
100
AcDbEntity
  8
MÄRK
100
AcDbLine
 10
466361.7497997488
 20
6530100.090429272
 30
2.37
 11
466362.0575497323
 21
6530100.398179255
 31
2.37
  0
LINE
  5
C5
330
2
100
AcDbEntity
  8
MÄRK
100
AcDbLine
 10
466361.8521874346
 20
6530100.016040265
 30
2.37
 11
466362.1009019673
 21
6530100.264754796
 31
2.37
  0
LINE
  5
C6
330
2
100
AcDbEntity
  8
MÄRK
100
AcDbLine
 10
466361.9545751214
 20
6530099.941651254
 30
2.37
 11
466362.1442542025
 21
6530100.131330335
 31
2.37
  0
LINE
  5
C7
330
2
100
AcDbEntity
  8
MÄRK
100
AcDbLine
 10
466362.0569628082
 20
6530099.867262245
 30
2.37
 11
466362.1876064376
 21
6530099.997905876
 31
2.37
  0
LINE
  5
C8
330
2
100
AcDbEntity
  8
MÄRK
100
AcDbLine
 10
466362.1593504944
 20
6530099.792873237
 30
2.37
 11
466362.2309586722
 21
6530099.864481415
 31
2.37
  0
LINE
  5
C9
330
2
100
AcDbEntity
  8
MÄRK
100
AcDbLine
 10
466362.2617381807
 20
6530099.718484229
 30
2.37
 11
466362.2743109068
 21
6530099.731056955
 31
2.37
  0
LINE
  5
CA
330
2
100
AcDbEntity
  8
MÄRK
 62
    94
100
AcDbLine
 10
466279.5100990282
 20
6529636.097708495
 30
0.0
 11
466279.9191185222
 21
6529636.506727989
 31
0.0
  0
LINE
  5
CB
330
2
100
AcDbEntity
  8
MÄRK
 62
    94
100
AcDbLine
 10
466279.5346310889
 20
6529635.591910469
 30
0.0
 11
466280.3814463298
 21
6529636.43872571
 31
0.0
  0
LINE
  5
CC
330
2
100
AcDbEntity
  8
MÄRK
 62
    94
100
AcDbLine
 10
466279.6008929261
 20
6529635.127842221
 30
0.0
 11
466280.6194149973
 21
6529636.146364294
 31
0.0
  0
LINE
  5
CD
330
2
100
AcDbEntity
  8
MÄRK
 62
    94
100
AcDbLine
 10
466279.6671547643
 20
6529634.663773974
 30
0.0
 11
466280.7628805722
 21
6529635.759499782
 31
0.0
  0
LINE
  5
CE
330
2
100
AcDbEntity
  8
MÄRK
 62
    94
100
AcDbLine
 10
466279.7334166029
 20
6529634.199705726
 30
0.0
 11
466280.9068810605
 21
6529635.373170184
 31
0.0
  0
LINE
  5
CF
330
2
100
AcDbEntity
  8
MÄRK
 62
    94
100
AcDbLine
 10
466279.7996784401
 20
6529633.735637478
 30
0.0
 11
466281.0508815474
 21
6529634.986840585
 31
0.0
  0
LINE
  5
D0
330
2
100
AcDbEntity
  8
MÄRK
 62
    94
100
AcDbLine
 10
466279.8659402779
 20
6529633.27156923
 30
0.0
 11
466281.1948820348
 21
6529634.600510986
 31
0.0
  0
LINE
  5
D1
330
2
100
AcDbEntity
  8
MÄRK
 62
    94
100
AcDbLine
 10
466279.9322021156
 20
6529632.807500981
 30
0.0
 11
466281.3388825217
 21
6529634.214181387
 31
0.0
  0
LINE
  5
D2
330
2
100
AcDbEntity
  8
MÄRK
 62
    94
100
AcDbLine
 10
466280.0024808608
 20
6529632.34744964
 30
0.0
 11
466281.4828830096
 21
6529633.827851791
 31
0.0
  0
LINE
  5
D3
330
2
100
AcDbEntity
  8
MÄRK
 62
    94
100
AcDbLine
 10
466280.03786474
 20
6529631.852503435
 30
0.0
 11
466281.6268834965
 21
6529633.441522191
 31
0.0
  0
LINE
  5
D4
330
2
100
AcDbEntity
  8
MÄRK
 62
    94
100
AcDbLine
 10
466279.802702792
 20
6529631.0870114
 30
0.0
 11
466281.7708839848
 21
6529633.055192593
 31
0.0
  0
LINE
  5
D5
330
2
100
AcDbEntity
  8
MÄRK
 62
    94
100
AcDbLine
 10
466280.3330328781
 20
6529631.0870114
 30
0.0
 11
466281.9148844723
 21
6529632.668862994
 31
0.0
  0
LINE
  5
D6
330
2
100
AcDbEntity
  8
MÄRK
 62
    94
100
AcDbLine
 10
466280.8633629647
 20
6529631.087011401
 30
0.0
 11
466282.0774011463
 21
6529632.301049582
 31
0.0
  0
LINE
  5
D7
330
2
100
AcDbEntity
  8
MÄRK
 62
    94
100
AcDbLine
 10
466281.3936930499
 20
6529631.0870114
 30
0.0
 11
466282.2637413848
 21
6529631.957059734
 31
0.0
  0
LINE
  5
D8
330
2
100
AcDbEntity
  8
MÄRK
 62
    94
100
AcDbLine
 10
466281.9240231356
 20
6529631.0870114
 30
0.0
 11
466282.4812843753
 21
6529631.64427264
 31
0.0
  0
LINE
  5
D9
330
2
100
AcDbEntity
  8
MÄRK
 62
    94
100
AcDbLine
 10
466282.4543532217
 20
6529631.0870114
 30
0.0
 11
466282.7324746944
 21
6529631.365132872
 31
0.0
  0
LINE
  5
DA
330
2
100
AcDbEntity
  8
MÄRK
 62
    94
100
AcDbLine
 10
466282.9846833078
 20
6529631.0870114
 30
0.0
 11
466283.000910975
 21
6529631.103239068
 31
0.0
  0
LINE
  5
DB
330
2
100
AcDbEntity
  8
MÄRK
 62
    94
100
AcDbLine
 10
466279.4910867293
 20
6529635.901919501
 30
0.0
 11
466280.1149075157
 21
6529636.525740287
 31
0.0
  0
LINE
  5
DC
330
2
100
AcDbEntity
  8
MÄRK
 62
    94
100
AcDbLine
 10
466279.5567183681
 20
6529635.437221055
 30
0.0
 11
466280.4803874236
 21
6529636.36089011
 31
0.0
  0
LINE
  5
DD
330
2
100
AcDbEntity
  8
MÄRK
 62
    94
100
AcDbLine
 10
466279.6229802058
 20
6529634.973152806
 30
0.0
 11
466280.6668802472
 21
6529636.017052848
 31
0.0
  0
LINE
  5
DE
330
2
100
AcDbEntity
  8
MÄRK
 62
    94
100
AcDbLine
 10
466279.689242044
 20
6529634.509084558
 30
0.0
 11
466280.8108807346
 21
6529635.630723248
 31
0.0
  0
LINE
  5
DF
330
2
100
AcDbEntity
  8
MÄRK
 62
    94
100
AcDbLine
 10
466279.7555038816
 20
6529634.045016311
 30
0.0
 11
466280.9548812219
 21
6529635.24439365
 31
0.0
  0
LINE
  5
E0
330
2
100
AcDbEntity
  8
MÄRK
 62
    94
100
AcDbLine
 10
466279.8217657189
 20
6529633.580948061
 30
0.0
 11
466281.0988817089
 21
6529634.858064051
 31
0.0
  0
LINE
  5
E1
330
2
100
AcDbEntity
  8
MÄRK
 62
    94
100
AcDbLine
 10
466279.8880275576
 20
6529633.116879814
 30
0.0
 11
466281.2428821973
 21
6529634.471734453
 31
0.0
  0
LINE
  5
E2
330
2
100
AcDbEntity
  8
MÄRK
 62
    94
100
AcDbLine
 10
466279.9542893954
 20
6529632.652811566
 30
0.0
 11
466281.3868826851
 21
6529634.085404856
 31
0.0
  0
LINE
  5
E3
330
2
100
AcDbEntity
  8
MÄRK
 62
    94
100
AcDbLine
 10
466280.0246234029
 20
6529632.192815487
 30
0.0
 11
466281.5308831725
 21
6529633.699075258
 31
0.0
  0
LINE
  5
E4
330
2
100
AcDbEntity
  8
MÄRK
 62
    94
100
AcDbLine
 10
466279.9931986965
 20
6529631.631060696
 30
0.0
 11
466281.674883659
 21
6529633.312745658
 31
0.0
  0
LINE
  5
E5
330
2
100
AcDbEntity
  8
MÄRK
 62
    94
100
AcDbLine
 10
466279.979479487
 20
6529631.0870114
 30
0.0
 11
466281.8188841464
 21
6529632.926416058
 31
0.0
  0
LINE
  5
E6
330
2
100
AcDbEntity
  8
MÄRK
 62
    94
100
AcDbLine
 10
466280.5098095732
 20
6529631.0870114
 30
0.0
 11
466281.9628846348
 21
6529632.540086462
 31
0.0
  0
LINE
  5
E7
330
2
100
AcDbEntity
  8
MÄRK
 62
    94
100
AcDbLine
 10
466281.1872244575
 20
6529631.234096198
 30
0.0
 11
466282.1371389064
 21
6529632.184010648
 31
0.0
  0
LINE
  5
E8
330
2
100
AcDbEntity
  8
MÄRK
 62
    94
100
AcDbLine
 10
466281.5704697449
 20
6529631.0870114
 30
0.0
 11
466282.331994553
 21
6529631.84853621
 31
0.0
  0
LINE
  5
E9
330
2
100
AcDbEntity
  8
MÄRK
 62
    94
100
AcDbLine
 10
466282.1007998306
 20
6529631.0870114
 30
0.0
 11
466282.5620437562
 21
6529631.548255325
 31
0.0
  0
LINE
  5
EA
330
2
100
AcDbEntity
  8
MÄRK
 62
    94
100
AcDbLine
 10
466282.6311299167
 20
6529631.0870114
 30
0.0
 11
466282.8208585508
 21
6529631.276740034
 31
0.0
  0
LINE
  5
EB
330
2
100
AcDbEntity
  8
MÄRK
 62
     1
100
AcDbLine
 10
466383.9549075396
 20
6529731.557643168
 30
0.0
 11
466384.55338841
 21
6529732.15612404
 31
0.0
  0
LINE
  5
EC
330
2
100
AcDbEntity
  8
MÄRK
 62
     1
100
AcDbLine
 10
466384.018370331
 20
6529731.090775874
 30
0.0
 11
466384.9311512342
 21
6529732.003556778
 31
0.0
  0
LINE
  5
ED
330
2
100
AcDbEntity
  8
MÄRK
 62
     1
100
AcDbLine
 10
466384.0846321696
 20
6529730.626707628
 30
0.0
 11
466385.1244279926
 21
6529731.666503451
 31
0.0
  0
LINE
  5
EE
330
2
100
AcDbEntity
  8
MÄRK
 62
     1
100
AcDbLine
 10
466384.1508940069
 20
6529730.162639379
 30
0.0
 11
466385.2684284796
 21
6529731.280173852
 31
0.0
  0
LINE
  5
EF
330
2
100
AcDbEntity
  8
MÄRK
 62
     1
100
AcDbLine
 10
466384.2171558451
 20
6529729.698571132
 30
0.0
 11
466385.4124289669
 21
6529730.893844254
 31
0.0
  0
LINE
  5
F0
330
2
100
AcDbEntity
  8
MÄRK
 62
     1
100
AcDbLine
 10
466384.2834176838
 20
6529729.234502883
 30
0.0
 11
466385.5564294548
 21
6529730.507514655
 31
0.0
  0
LINE
  5
F1
330
2
100
AcDbEntity
  8
MÄRK
 62
     1
100
AcDbLine
 10
466384.349679522
 20
6529728.770434636
 30
0.0
 11
466385.7004299422
 21
6529730.121185057
 31
0.0
  0
LINE
  5
F2
330
2
100
AcDbEntity
  8
MÄRK
 62
     1
100
AcDbLine
 10
466384.4159413588
 20
6529728.306366388
 30
0.0
 11
466385.8444304301
 21
6529729.734855459
 31
0.0
  0
LINE
  5
F3
330
2
100
AcDbEntity
  8
MÄRK
 62
     1
100
AcDbLine
 10
466384.4866394011
 20
6529727.846734345
 30
0.0
 11
466385.9884309174
 21
6529729.34852586
 31
0.0
  0
LINE
  5
F4
330
2
100
AcDbEntity
  8
MÄRK
 62
     1
100
AcDbLine
 10
466384.4717191227
 20
6529727.301483979
 30
0.0
 11
466386.1324314044
 21
6529728.962196261
 31
0.0
  0
LINE
  5
F5
330
2
100
AcDbEntity
  8
MÄRK
 62
     1
100
AcDbLine
 10
466384.4166309286
 20
6529726.716065701
 30
0.0
 11
466386.2764318923
 21
6529728.575866663
 31
0.0
  0
LINE
  5
F6
330
2
100
AcDbEntity
  8
MÄRK
 62
     1
100
AcDbLine
 10
466384.9469610143
 20
6529726.716065701
 30
0.0
 11
466386.4204323792
 21
6529728.189537064
 31
0.0
  0
LINE
  5
F7
330
2
100
AcDbEntity
  8
MÄRK
 62
     1
100
AcDbLine
 10
466385.4772911004
 20
6529726.716065701
 30
0.0
 11
466385.4978782342
 21
6529726.736652833
 31
0.0
  0
LINE
  5
F8
330
2
100
AcDbEntity
  8
MÄRK
 62
     1
100
AcDbLine
 10
466385.6231820292
 20
6529726.861956629
 30
0.0
 11
466386.5927037902
 21
6529727.831478389
 31
0.0
  0
LINE
  5
F9
330
2
100
AcDbEntity
  8
MÄRK
 62
     1
100
AcDbLine
 10
466386.0076211871
 20
6529726.716065701
 30
0.0
 11
466386.7860729342
 21
6529727.494517447
 31
0.0
  0
LINE
  5
FA
330
2
100
AcDbEntity
  8
MÄRK
 62
     1
100
AcDbLine
 10
466386.5379512731
 20
6529726.716065701
 30
0.0
 11
466387.0141729133
 21
6529727.192287341
 31
0.0
  0
LINE
  5
FB
330
2
100
AcDbEntity
  8
MÄRK
 62
     1
100
AcDbLine
 10
466387.0682813588
 20
6529726.716065701
 30
0.0
 11
466387.2719084395
 21
6529726.919692782
 31
0.0
  0
LINE
  5
FC
330
2
100
AcDbEntity
  8
MÄRK
 62
     1
100
AcDbLine
 10
466383.974195773
 20
6529731.400154708
 30
0.0
 11
466384.7056595299
 21
6529732.131618466
 31
0.0
  0
LINE
  5
FD
330
2
100
AcDbEntity
  8
MÄRK
 62
     1
100
AcDbLine
 10
466384.0404576102
 20
6529730.936086458
 30
0.0
 11
466385.0139640176
 21
6529731.909592866
 31
0.0
  0
LINE
  5
FE
330
2
100
AcDbEntity
  8
MÄRK
 62
     1
100
AcDbLine
 10
466384.1067194485
 20
6529730.472018211
 30
0.0
 11
466385.1724281551
 21
6529731.537726917
 31
0.0
  0
LINE
  5
FF
330
2
100
AcDbEntity
  8
MÄRK
 62
     1
100
AcDbLine
 10
466384.1729812866
 20
6529730.007949964
 30
0.0
 11
466385.316428642
 21
6529731.151397319
 31
0.0
  0
LINE
  5
100
330
2
100
AcDbEntity
  8
MÄRK
 62
     1
100
AcDbLine
 10
466384.2392431248
 20
6529729.543881716
 30
0.0
 11
466385.4604291299
 21
6529730.765067722
 31
0.0
  0
LINE
  5
101
330
2
100
AcDbEntity
  8
MÄRK
 62
     1
100
AcDbLine
 10
466384.305504963
 20
6529729.079813469
 30
0.0
 11
466385.6044296173
 21
6529730.378738123
 31
0.0
  0
LINE
  5
102
330
2
100
AcDbEntity
  8
MÄRK
 62
     1
100
AcDbLine
 10
466384.3717668012
 20
6529728.61574522
 30
0.0
 11
466385.7484301047
 21
6529729.992408524
 31
0.0
  0
LINE
  5
103
330
2
100
AcDbEntity
  8
MÄRK
 62
     1
100
AcDbLine
 10
466384.438028639
 20
6529728.151676972
 30
0.0
 11
466385.8924305916
 21
6529729.606078925
 31
0.0
  0
LINE
  5
104
330
2
100
AcDbEntity
  8
MÄRK
 62
     1
100
AcDbLine
 10
466384.5027693326
 20
6529727.686087579
 30
0.0
 11
466386.036431079
 21
6529729.219749326
 31
0.0
  0
LINE
  5
105
330
2
100
AcDbEntity
  8
MÄRK
 62
     1
100
AcDbLine
 10
466384.063077538
 20
6529726.716065701
 30
0.0
 11
466386.1804315678
 21
6529728.83341973
 31
0.0
  0
LINE
  5
106
330
2
100
AcDbEntity
  8
MÄRK
 62
     1
100
AcDbLine
 10
466384.5934076237
 20
6529726.716065701
 30
0.0
 11
466386.3244320552
 21
6529728.447090132
 31
0.0
  0
LINE
  5
107
330
2
100
AcDbEntity
  8
MÄRK
 62
     1
100
AcDbLine
 10
466385.1237377094
 20
6529726.716065701
 30
0.0
 11
466386.4750525511
 21
6529728.067380541
 31
0.0
  0
LINE
  5
108
330
2
100
AcDbEntity
  8
MÄRK
 62
     1
100
AcDbLine
 10
466385.752973662
 20
6529726.814971565
 30
0.0
 11
466386.6541930169
 21
6529727.716190921
 31
0.0
  0
LINE
  5
109
330
2
100
AcDbEntity
  8
MÄRK
 62
     1
100
AcDbLine
 10
466386.1843978816
 20
6529726.716065701
 30
0.0
 11
466386.8577885518
 21
6529727.38945637
 31
0.0
  0
LINE
  5
10A
330
2
100
AcDbEntity
  8
MÄRK
 62
     1
100
AcDbLine
 10
466386.7147279673
 20
6529726.716065701
 30
0.0
 11
466387.0976617739
 21
6529727.098999507
 31
0.0
  0
LINE
  5
10B
330
2
100
AcDbEntity
  8
MÄRK
 62
     1
100
AcDbLine
 10
466387.2450580529
 20
6529726.716065701
 30
0.0
 11
466387.3614207093
 21
6529726.832428356
 31
0.0
  0
LINE
  5
10C
330
2
100
AcDbEntity
  8
MÄRK
 62
    94
100
AcDbLine
 10
466435.0994503975
 20
6529624.951376253
 30
0.0
 11
466435.6670342649
 21
6529625.518960119
 31
0.0
  0
LINE
  5
10D
330
2
100
AcDbEntity
  8
MÄRK
 62
    94
100
AcDbLine
 10
466435.1590619141
 20
6529624.480657682
 30
0.0
 11
466436.0592638024
 21
6529625.380859571
 31
0.0
  0
LINE
  5
10E
330
2
100
AcDbEntity
  8
MÄRK
 62
    94
100
AcDbLine
 10
466435.2253237518
 20
6529624.016589434
 30
0.0
 11
466436.2605869544
 21
6529625.051852637
 31
0.0
  0
LINE
  5
10F
330
2
100
AcDbEntity
  8
MÄRK
 62
    94
100
AcDbLine
 10
466435.2915855896
 20
6529623.552521186
 30
0.0
 11
466436.4045874418
 21
6529624.665523039
 31
0.0
  0
LINE
  5
110
330
2
100
AcDbEntity
  8
MÄRK
 62
    94
100
AcDbLine
 10
466435.3578474272
 20
6529623.088452938
 30
0.0
 11
466436.5485879293
 21
6529624.279193441
 31
0.0
  0
LINE
  5
111
330
2
100
AcDbEntity
  8
MÄRK
 62
    94
100
AcDbLine
 10
466435.4241092659
 20
6529622.624384691
 30
0.0
 11
466436.6925884162
 21
6529623.892863841
 31
0.0
  0
LINE
  5
112
330
2
100
AcDbEntity
  8
MÄRK
 62
    94
100
AcDbLine
 10
466435.4903711037
 20
6529622.160316442
 30
0.0
 11
466436.836588904
 21
6529623.506534244
 31
0.0
  0
LINE
  5
113
330
2
100
AcDbEntity
  8
MÄRK
 62
    94
100
AcDbLine
 10
466435.5566329418
 20
6529621.696248195
 30
0.0
 11
466436.9805893914
 21
6529623.120204645
 31
0.0
  0
LINE
  5
114
330
2
100
AcDbEntity
  8
MÄRK
 62
    94
100
AcDbLine
 10
466435.6275425597
 20
6529621.236827728
 30
0.0
 11
466437.1245898793
 21
6529622.733875046
 31
0.0
  0
LINE
  5
115
330
2
100
AcDbEntity
  8
MÄRK
 62
    94
100
AcDbLine
 10
466435.6270983575
 20
6529620.706053439
 30
0.0
 11
466437.2685903667
 21
6529622.347545448
 31
0.0
  0
LINE
  5
116
330
2
100
AcDbEntity
  8
MÄRK
 62
    94
100
AcDbLine
 10
466435.5302646042
 20
6529620.0788896
 30
0.0
 11
466437.412590855
 21
6529621.96121585
 31
0.0
  0
LINE
  5
117
330
2
100
AcDbEntity
  8
MÄRK
 62
    94
100
AcDbLine
 10
466436.0605946898
 20
6529620.0788896
 30
0.0
 11
466437.5565913419
 21
6529621.574886252
 31
0.0
  0
LINE
  5
118
330
2
100
AcDbEntity
  8
MÄRK
 62
    94
100
AcDbLine
 10
466436.5909247758
 20
6529620.0788896
 30
0.0
 11
466436.656272378
 21
6529620.144237202
 31
0.0
  0
LINE
  5
119
330
2
100
AcDbEntity
  8
MÄRK
 62
    94
100
AcDbLine
 10
466436.7229765987
 20
6529620.210941422
 30
0.0
 11
466437.7267318333
 21
6529621.214696658
 31
0.0
  0
LINE
  5
11A
330
2
100
AcDbEntity
  8
MÄRK
 62
    94
100
AcDbLine
 10
466437.1212548621
 20
6529620.0788896
 30
0.0
 11
466437.9185188885
 21
6529620.876153626
 31
0.0
  0
LINE
  5
11B
330
2
100
AcDbEntity
  8
MÄRK
 62
    94
100
AcDbLine
 10
466437.6515849477
 20
6529620.0788896
 30
0.0
 11
466438.1444438293
 21
6529620.571748481
 31
0.0
  0
LINE
  5
11C
330
2
100
AcDbEntity
  8
MÄRK
 62
    94
100
AcDbLine
 10
466438.1819150334
 20
6529620.0788896
 30
0.0
 11
466438.4009318349
 21
6529620.297906401
 31
0.0
  0
LINE
  5
11D
330
2
100
AcDbEntity
  8
MÄRK
 62
    94
100
AcDbLine
 10
466435.1148873551
 20
6529624.790036515
 30
0.0
 11
466435.8260098199
 21
6529625.50115898
 31
0.0
  0
LINE
  5
11E
330
2
100
AcDbEntity
  8
MÄRK
 62
    94
100
AcDbLine
 10
466435.1811491933
 20
6529624.325968267
 30
0.0
 11
466436.1454211229
 21
6529625.290240196
 31
0.0
  0
LINE
  5
11F
330
2
100
AcDbEntity
  8
MÄRK
 62
    94
100
AcDbLine
 10
466435.2474110319
 20
6529623.86190002
 30
0.0
 11
466436.3085871168
 21
6529624.923076104
 31
0.0
  0
LINE
  5
120
330
2
100
AcDbEntity
  8
MÄRK
 62
    94
100
AcDbLine
 10
466435.3136728688
 20
6529623.397831771
 30
0.0
 11
466436.4525876048
 21
6529624.536746506
 31
0.0
  0
LINE
  5
121
330
2
100
AcDbEntity
  8
MÄRK
 62
    94
100
AcDbLine
 10
466435.379934707
 20
6529622.933763524
 30
0.0
 11
466436.5965880917
 21
6529624.150416908
 31
0.0
  0
LINE
  5
122
330
2
100
AcDbEntity
  8
MÄRK
 62
    94
100
AcDbLine
 10
466435.4461965452
 20
6529622.469695275
 30
0.0
 11
466436.74058858
 21
6529623.764087309
 31
0.0
  0
LINE
  5
123
330
2
100
AcDbEntity
  8
MÄRK
 62
    94
100
AcDbLine
 10
466435.5124583837
 20
6529622.005627028
 30
0.0
 11
466436.8845890674
 21
6529623.377757713
 31
0.0
  0
LINE
  5
124
330
2
100
AcDbEntity
  8
MÄRK
 62
    94
100
AcDbLine
 10
466435.5787202207
 20
6529621.541558778
 30
0.0
 11
466437.0285895548
 21
6529622.991428113
 31
0.0
  0
LINE
  5
125
330
2
100
AcDbEntity
  8
MÄRK
 62
    94
100
AcDbLine
 10
466435.6452349445
 20
6529621.077743418
 30
0.0
 11
466437.1725900418
 21
6529622.605098515
 31
0.0
  0
LINE
  5
126
330
2
100
AcDbEntity
  8
MÄRK
 62
    94
100
AcDbLine
 10
466435.1767112136
 20
6529620.0788896
 30
0.0
 11
466437.3165905291
 21
6529622.218768915
 31
0.0
  0
LINE
  5
127
330
2
100
AcDbEntity
  8
MÄRK
 62
    94
100
AcDbLine
 10
466435.7070412992
 20
6529620.0788896
 30
0.0
 11
466437.4605910166
 21
6529621.832439318
 31
0.0
  0
LINE
  5
128
330
2
100
AcDbEntity
  8
MÄRK
 62
    94
100
AcDbLine
 10
466436.2373713848
 20
6529620.0788896
 30
0.0
 11
466437.609505377
 21
6529621.451023593
 31
0.0
  0
LINE
  5
129
330
2
100
AcDbEntity
  8
MÄRK
 62
    94
100
AcDbLine
 10
466436.8816838164
 20
6529620.192871946
 30
0.0
 11
466437.7878147379
 21
6529621.099002866
 31
0.0
  0
LINE
  5
12A
330
2
100
AcDbEntity
  8
MÄRK
 62
    94
100
AcDbLine
 10
466437.2980315562
 20
6529620.0788896
 30
0.0
 11
466437.9894791355
 21
6529620.770337178
 31
0.0
  0
LINE
  5
12B
330
2
100
AcDbEntity
  8
MÄRK
 62
    94
100
AcDbLine
 10
466437.8283616428
 20
6529620.0788896
 30
0.0
 11
466438.2274047329
 21
6529620.477932691
 31
0.0
  0
LINE
  5
12C
330
2
100
AcDbEntity
  8
MÄRK
 62
    94
100
AcDbLine
 10
466438.3586917284
 20
6529620.0788896
 30
0.0
 11
466438.4902446142
 21
6529620.210442486
 31
0.0
  0
TEXT
  5
12D
330
2
100
AcDbEntity
  8
MÄRK
  6
Continuous
100
AcDbText
 10
466326.8160130169
 20
6530118.657248736
 30
2.37
 40
2.0
  1
Rohuküla sadama põhjamuuli tulepaak 
  7
KOORD
100
AcDbText
  0
TEXT
  5
12E
330
2
100
AcDbEntity
  8
MÄRK
  6
Continuous
100
AcDbText
 10
466326.8132845041
 20
6530115.315729863
 30
2.37
 40
2.0
  1
Nr 533  
  7
KOORD
100
AcDbText
  0
TEXT
  5
12F
330
2
100
AcDbEntity
  8
MÄRK
  6
Continuous
100
AcDbText
 10
466326.8296555818
 20
6530111.982396529
 30
2.37
 40
2.0
  1
Fl R 5s
  7
KOORD
100
AcDbText
  0
TEXT
  5
130
330
2
100
AcDbEntity
  8
MÄRK
  6
Continuous
100
AcDbText
 10
466326.7587142448
 20
6530108.636784888
 30
2.37
 40
2.0
  1
0.5 + 4.5 = 1s 
  7
KOORD
100
AcDbText
  0
TEXT
  5
131
330
2
100
AcDbEntity
  8
MÄRK
  6
Continuous
100
AcDbText
 10
466326.7614427578
 20
6530105.295266015
 30
2.37
 40
2.0
  1
58  54.5270 N
  7
KOORD
100
AcDbText
  0
TEXT
  5
132
330
2
100
AcDbEntity
  8
MÄRK
  6
Continuous
100
AcDbText
 10
466326.7696282967
 20
6530101.953747143
 30
2.37
 40
2.0
  1
23  24.9735 E
  7
KOORD
100
AcDbText
  0
TEXT
  5
133
330
2
100
AcDbEntity
  8
MÄRK
  6
Continuous
100
AcDbText
 10
466971.654070488
 20
6529986.763145378
 30
0.0
 40
2.0
  1
Rohuküla ülemine tulepaak
  7
KOORD
100
AcDbText
  0
TEXT
  5
134
330
2
100
AcDbEntity
  8
MÄRK
  6
Continuous
100
AcDbText
 10
466971.6513419751
 20
6529983.417533735
 30
0.0
 40
2.0
  1
Nr 532 ; Rv nr 3653.1
  7
KOORD
100
AcDbText
  0
TEXT
  5
135
330
2
100
AcDbEntity
  8
MÄRK
  6
Continuous
100
AcDbText
 10
466971.5326516612
 20
6529980.050093991
 30
0.0
 40
2.0
  1
Oc W 3s
  7
KOORD
100
AcDbText
  0
TEXT
  5
136
330
2
100
AcDbEntity
  8
MÄRK
  6
Continuous
100
AcDbText
 10
466971.6076857677
 20
6529976.708575118
 30
0.0
 40
2.0
  1
2.5 + 0.5 = 3s
  7
KOORD
100
AcDbText
  0
TEXT
  5
137
330
2
100
AcDbEntity
  8
MÄRK
  6
Continuous
100
AcDbText
 10
466971.5995002288
 20
6529973.367056246
 30
0.0
 40
2.0
  1
58  54.4652 N
  7
KOORD
100
AcDbText
  0
TEXT
  5
138
330
2
100
AcDbEntity
  8
MÄRK
  6
Continuous
100
AcDbText
 10
466971.6076857677
 20
6529970.025537373
 30
0.0
 40
2.0
  1
23  26.0248 E
  7
KOORD
100
AcDbText
  0
TEXT
  5
139
330
2
100
AcDbEntity
  8
MÄRK
  6
Continuous
100
AcDbText
 10
466912.7806514459
 20
6529987.550724237
 30
0.0
 40
2.0
  1
Rohuküla liitsihi alumine tulepaak
  7
KOORD
100
AcDbText
  0
TEXT
  5
13A
330
2
100
AcDbEntity
  8
MÄRK
  6
Continuous
100
AcDbText
 10
466912.777922933
 20
6529984.205112595
 30
0.0
 40
2.0
  1
Nr 531 ; Rv nr 
  7
KOORD
100
AcDbText
  0
TEXT
  5
13B
330
2
100
AcDbEntity
  8
MÄRK
  6
Continuous
100
AcDbText
 10
466931.7219884172
 20
6529984.205112595
 30
0.0
 40
2.0
  1
365
  7
KOORD
100
AcDbText
  0
TEXT
  5
13C
330
2
100
AcDbEntity
  8
MÄRK
  6
Continuous
100
AcDbText
 10
466936.4436800953
 20
6529984.205112595
 30
0.0
 40
2.0
  1
3
  7
KOORD
100
AcDbText
  0
TEXT
  5
13D
330
2
100
AcDbEntity
  8
MÄRK
  6
Continuous
100
AcDbText
 10
466912.6592326191
 20
6529980.837672849
 30
0.0
 40
2.0
  1
Q W
  7
KOORD
100
AcDbText
  0
TEXT
  5
13E
330
2
100
AcDbEntity
  8
MÄRK
  6
Continuous
100
AcDbText
 10
466912.7233526737
 20
6529977.492061207
 30
0.0
 40
2.0
  1
0.5 + 
  7
KOORD
100
AcDbText
  0
TEXT
  5
13F
330
2
100
AcDbEntity
  8
MÄRK
  6
Continuous
100
AcDbText
 10
466919.7915654977
 20
6529977.492061207
 30
0.0
 40
2.0
  1
0.5 
  7
KOORD
100
AcDbText
  0
TEXT
  5
140
330
2
100
AcDbEntity
  8
MÄRK
  6
Continuous
100
AcDbText
 10
466924.451865634
 20
6529977.492061207
 30
0.0
 40
2.0
  1
= 1s 
  7
KOORD
100
AcDbText
  0
TEXT
  5
141
330
2
100
AcDbEntity
  8
MÄRK
  6
Continuous
100
AcDbText
 10
466912.7260811866
 20
6529974.150542334
 30
0.0
 40
2.0
  1
58 
  7
KOORD
100
AcDbText
  0
TEXT
  5
142
330
2
100
AcDbEntity
  8
MÄRK
  6
Continuous
100
AcDbText
 10
466916.6101193858
 20
6529974.150542334
 30
0.0
 40
2.0
  1
 54
  7
KOORD
100
AcDbText
  0
TEXT
  5
143
330
2
100
AcDbEntity
  8
MÄRK
  6
Continuous
100
AcDbText
 10
466920.5050716369
 20
6529974.150542334
 30
0.0
 40
2.0
  1
.
  7
KOORD
100
AcDbText
  0
TEXT
  5
144
330
2
100
AcDbEntity
  8
MÄRK
  6
Continuous
100
AcDbText
 10
466921.2813335741
 20
6529974.150542334
 30
0.0
 40
2.0
  1
4657
  7
KOORD
100
AcDbText
  0
TEXT
  5
145
330
2
100
AcDbEntity
  8
MÄRK
  6
Continuous
100
AcDbText
 10
466928.4027524009
 20
6529974.150542334
 30
0.0
 40
2.0
  1
N
  7
KOORD
100
AcDbText
  0
TEXT
  5
146
330
2
100
AcDbEntity
  8
MÄRK
  6
Continuous
100
AcDbText
 10
466912.7342667255
 20
6529970.809023463
 30
0.0
 40
2.0
  1
23 
  7
KOORD
100
AcDbText
  0
TEXT
  5
147
330
2
100
AcDbEntity
  8
MÄRK
  6
Continuous
100
AcDbText
 10
466917.394566862
 20
6529970.809023463
 30
0.0
 40
2.0
  1
25
  7
KOORD
100
AcDbText
  0
TEXT
  5
148
330
2
100
AcDbEntity
  8
MÄRK
  6
Continuous
100
AcDbText
 10
466920.5623704089
 20
6529970.809023463
 30
0.0
 40
2.0
  1
.5463
  7
KOORD
100
AcDbText
  0
TEXT
  5
149
330
2
100
AcDbEntity
  8
MÄRK
  6
Continuous
100
AcDbText
 10
466928.3413608592
 20
6529970.809023463
 30
0.0
 40
2.0
  1
E
  7
KOORD
100
AcDbText
  0
TEXT
  5
14A
330
2
100
AcDbEntity
  8
MÄRK
  6
Continuous
100
AcDbText
 10
466788.2769147174
 20
6529646.032402179
 30
0.0
 40
1.9
  1
58 
  7
KOORD
100
AcDbText
  0
TEXT
  5
14B
330
2
100
AcDbEntity
  8
MÄRK
  6
Continuous
100
AcDbText
 10
466791.9667510065
 20
6529646.032402179
 30
0.0
 40
1.9
  1
 54
  7
KOORD
100
AcDbText
  0
TEXT
  5
14C
330
2
100
AcDbEntity
  8
MÄRK
  6
Continuous
100
AcDbText
 10
466795.666955645
 20
6529646.032402179
 30
0.0
 40
1.9
  1
.
  7
KOORD
100
AcDbText
  0
TEXT
  5
14D
330
2
100
AcDbEntity
  8
MÄRK
  6
Continuous
100
AcDbText
 10
466796.4044044854
 20
6529646.032402179
 30
0.0
 40
1.9
  1
2832
  7
KOORD
100
AcDbText
  0
TEXT
  5
14E
330
2
100
AcDbEntity
  8
MÄRK
  6
Continuous
100
AcDbText
 10
466803.0855095332
 20
6529646.032402179
 30
0.0
 40
1.9
  1
N
  7
KOORD
100
AcDbText
  0
TEXT
  5
14F
330
2
100
AcDbEntity
  8
MÄRK
  6
Continuous
100
AcDbText
 10
466788.2846909793
 20
6529642.854071119
 30
0.0
 40
1.9
  1
23 
  7
KOORD
100
AcDbText
  0
TEXT
  5
150
330
2
100
AcDbEntity
  8
MÄRK
  6
Continuous
100
AcDbText
 10
466792.7119761089
 20
6529642.854071119
 30
0.0
 40
1.9
  1
25
  7
KOORD
100
AcDbText
  0
TEXT
  5
151
330
2
100
AcDbEntity
  8
MÄRK
  6
Continuous
100
AcDbText
 10
466795.7213894786
 20
6529642.854071119
 30
0.0
 40
1.9
  1
.4137
  7
KOORD
100
AcDbText
  0
TEXT
  5
152
330
2
100
AcDbEntity
  8
MÄRK
  6
Continuous
100
AcDbText
 10
466803.2241862044
 20
6529642.854071119
 30
0.0
 40
1.9
  1
E
  7
KOORD
100
AcDbText
  0
TEXT
  5
153
330
2
100
AcDbEntity
  8
MÄRK
  6
Continuous
100
AcDbText
 10
466502.306337334
 20
6529897.98097058
 30
2.37
 40
2.0
  1
58 
 50
89.0
  7
KOORD
100
AcDbText
  0
TEXT
  5
154
330
2
100
AcDbEntity
  8
MÄRK
  6
Continuous
100
AcDbText
 10
466502.3741231473
 20
6529901.864417221
 30
2.37
 40
2.0
  1
 54
 50
89.0
  7
KOORD
100
AcDbText
  0
TEXT
  5
155
330
2
100
AcDbEntity
  8
MÄRK
  6
Continuous
100
AcDbText
 10
466502.442099437
 20
6529905.758776253
 30
2.37
 40
2.0
  1
.
 50
89.0
  7
KOORD
100
AcDbText
  0
TEXT
  5
156
330
2
100
AcDbEntity
  8
MÄRK
  6
Continuous
100
AcDbText
 10
466502.4556470759
 20
6529906.534919961
 30
2.37
 40
2.0
  1
4630
 50
89.0
  7
KOORD
100
AcDbText
  0
TEXT
  5
157
330
2
100
AcDbEntity
  8
MÄRK
  6
Continuous
100
AcDbText
 10
466502.5784091599
 20
6529913.567955045
 30
2.37
 40
2.0
  1
N  Rohuküla sadama lõunamuuli tulepaak  Nr 534 
 50
89.0
  7
KOORD
100
AcDbText
  0
TEXT
  5
158
330
2
100
AcDbEntity
  8
MÄRK
  6
Continuous
100
AcDbText
 10
466505.7170023611
 20
6529900.427958111
 30
2.37
 40
2.0
  1
23 
 50
89.0
  7
KOORD
100
AcDbText
  0
TEXT
  5
159
330
2
100
AcDbEntity
  8
MÄRK
  6
Continuous
100
AcDbText
 10
466505.7983358131
 20
6529905.08754846
 30
2.37
 40
2.0
  1
25
 50
89.0
  7
KOORD
100
AcDbText
  0
TEXT
  5
15A
330
2
100
AcDbEntity
  8
MÄRK
  6
Continuous
100
AcDbText
 10
466505.8536216082
 20
6529908.254869535
 30
2.37
 40
2.0
  1
.1243
 50
89.0
  7
KOORD
100
AcDbText
  0
TEXT
  5
15B
330
2
100
AcDbEntity
  8
MÄRK
  6
Continuous
100
AcDbText
 10
466505.9893837112
 20
6529916.032675207
 30
2.37
 40
2.0
  1
E                                 
 50
89.0
  7
KOORD
100
AcDbText
  0
TEXT
  5
15C
330
2
100
AcDbEntity
  8
MÄRK
  6
Continuous
100
AcDbText
 10
466506.4689796496
 20
6529943.508708119
 30
2.37
 40
2.0
  1
0.5 + 
 50
89.0
  7
KOORD
100
AcDbText
  0
TEXT
  5
15D
330
2
100
AcDbEntity
  8
MÄRK
  6
Continuous
100
AcDbText
 10
466506.5923369726
 20
6529950.575844419
 30
2.37
 40
2.0
  1
4.5 
 50
89.0
  7
KOORD
100
AcDbText
  0
TEXT
  5
15E
330
2
100
AcDbEntity
  8
MÄRK
  6
Continuous
100
AcDbText
 10
466506.6736704246
 20
6529955.23543477
 30
2.37
 40
2.0
  1
= 1s
 50
89.0
  7
KOORD
100
AcDbText
  0
TEXT
  5
15F
330
2
100
AcDbEntity
  8
MÄRK
  6
Continuous
100
AcDbText
 10
466506.76993247
 20
6529960.750283653
 30
2.37
 40
2.0
  1
           Fl G 5s 
 50
89.0
  7
KOORD
100
AcDbText
  0
LINE
  5
28E
330
2
100
AcDbEntity
  8
MÄRK
100
AcDbLine
 10
466779.8092726745
 20
6529647.393554388
 30
0.0
 11
466780.3090186343
 21
6529645.855494473
 31
0.0
  0
LINE
  5
28F
330
2
100
AcDbEntity
  8
MÄRK
100
AcDbLine
 10
466781.9262305319
 20
6529645.855494473
 30
0.0
 11
466780.6178786233
 21
6529644.904921171
 31
0.0
  0
LINE
  5
290
330
2
100
AcDbEntity
  8
MÄRK
100
AcDbLine
 10
466777.6923148172
 20
6529645.855494473
 30
0.0
 11
466779.3095267147
 21
6529645.855494473
 31
0.0
  0
LINE
  5
291
330
2
100
AcDbEntity
  8
MÄRK
100
AcDbLine
 10
466781.1176245831
 20
6529643.366861257
 30
0.0
 11
466779.8092726745
 21
6529644.317434559
 31
0.0
  0
LINE
  5
292
330
2
100
AcDbEntity
  8
MÄRK
100
AcDbLine
 10
466778.5009207659
 20
6529643.366861257
 30
0.0
 11
466779.0006667258
 21
6529644.904921171
 31
0.0
  0
ELLIPSE
  5
293
330
2
100
AcDbEntity
  8
MÄRK
100
AcDbEllipse
 10
466779.7993882312
 20
6529645.155420787
 30
0.0
 11
-0.4628143775125524
 21
0.4628143775125524
 31
0.0
210
0.0
220
0.0
230
0.9999999999999998
 40
0.9999999996062436
 41
3.926990817184119
 42
10.2101761243637
  0
LINE
  5
294
330
2
100
AcDbEntity
  8
MÄRK
100
AcDbLine
 10
466779.0006667258
 20
6529644.904921171
 30
0.0
 11
466777.6923148172
 21
6529645.855494473
 31
0.0
  0
LINE
  5
295
330
2
100
AcDbEntity
  8
MÄRK
100
AcDbLine
 10
466779.3095267147
 20
6529645.855494473
 30
0.0
 11
466779.8092726745
 21
6529647.393554388
 31
0.0
  0
LINE
  5
296
330
2
100
AcDbEntity
  8
MÄRK
100
AcDbLine
 10
466780.3090186343
 20
6529645.855494473
 30
0.0
 11
466781.9262305319
 21
6529645.855494473
 31
0.0
  0
LINE
  5
297
330
2
100
AcDbEntity
  8
MÄRK
100
AcDbLine
 10
466780.6178786233
 20
6529644.904921171
 30
0.0
 11
466781.1176245831
 21
6529643.366861257
 31
0.0
  0
LINE
  5
298
330
2
100
AcDbEntity
  8
MÄRK
100
AcDbLine
 10
466779.8092726745
 20
6529644.317434559
 30
0.0
 11
466778.5009207659
 21
6529643.366861257
 31
0.0
  0
LINE
  5
299
330
2
100
AcDbEntity
  8
MÄRK
100
AcDbLine
 10
466504.8105462769
 20
6529983.823981734
 30
0.0
 11
466505.3102922367
 21
6529982.285921819
 31
0.0
  0
LINE
  5
29A
330
2
100
AcDbEntity
  8
MÄRK
100
AcDbLine
 10
466506.9275041343
 20
6529982.285921819
 30
0.0
 11
466505.6191522257
 21
6529981.335348516
 31
0.0
  0
LINE
  5
29B
330
2
100
AcDbEntity
  8
MÄRK
100
AcDbLine
 10
466502.6935884196
 20
6529982.285921819
 30
0.0
 11
466504.3108003171
 21
6529982.285921819
 31
0.0
  0
LINE
  5
29C
330
2
100
AcDbEntity
  8
MÄRK
100
AcDbLine
 10
466506.1188981855
 20
6529979.797288603
 30
0.0
 11
466504.8105462769
 21
6529980.747861904
 31
0.0
  0
LINE
  5
29D
330
2
100
AcDbEntity
  8
MÄRK
100
AcDbLine
 10
466503.5021943684
 20
6529979.797288603
 30
0.0
 11
466504.0019403282
 21
6529981.335348516
 31
0.0
  0
ELLIPSE
  5
29E
330
2
100
AcDbEntity
  8
MÄRK
100
AcDbEllipse
 10
466504.8006618336
 20
6529981.585848133
 30
0.0
 11
-0.4628143775125524
 21
0.4628143775125524
 31
0.0
210
0.0
220
0.0
230
0.9999999999999998
 40
0.9999999996062436
 41
3.926990817184119
 42
10.2101761243637
  0
LINE
  5
29F
330
2
100
AcDbEntity
  8
MÄRK
100
AcDbLine
 10
466504.0019403282
 20
6529981.335348516
 30
0.0
 11
466502.6935884196
 21
6529982.285921819
 31
0.0
  0
LINE
  5
2A0
330
2
100
AcDbEntity
  8
MÄRK
100
AcDbLine
 10
466504.3108003171
 20
6529982.285921819
 30
0.0
 11
466504.8105462769
 21
6529983.823981734
 31
0.0
  0
LINE
  5
2A1
330
2
100
AcDbEntity
  8
MÄRK
100
AcDbLine
 10
466505.3102922367
 20
6529982.285921819
 30
0.0
 11
466506.9275041343
 21
6529982.285921819
 31
0.0
  0
LINE
  5
2A2
330
2
100
AcDbEntity
  8
MÄRK
100
AcDbLine
 10
466505.6191522257
 20
6529981.335348516
 30
0.0
 11
466506.1188981855
 21
6529979.797288603
 31
0.0
  0
LINE
  5
2A3
330
2
100
AcDbEntity
  8
MÄRK
100
AcDbLine
 10
466504.8105462769
 20
6529980.747861904
 30
0.0
 11
466503.5021943684
 21
6529979.797288603
 31
0.0
  0
LINE
  5
2A4
330
2
100
AcDbEntity
  8
MÄRK
100
AcDbLine
 10
466360.9846919895
 20
6530103.737784737
 30
0.0
 11
466361.4844379494
 21
6530102.199724823
 31
0.0
  0
LINE
  5
2A5
330
2
100
AcDbEntity
  8
MÄRK
100
AcDbLine
 10
466363.1016498468
 20
6530102.199724823
 30
0.0
 11
466361.7932979382
 21
6530101.24915152
 31
0.0
  0
LINE
  5
2A6
330
2
100
AcDbEntity
  8
MÄRK
100
AcDbLine
 10
466358.8677341322
 20
6530102.199724823
 30
0.0
 11
466360.4849460297
 21
6530102.199724823
 31
0.0
  0
LINE
  5
2A7
330
2
100
AcDbEntity
  8
MÄRK
100
AcDbLine
 10
466362.2930438981
 20
6530099.711091605
 30
0.0
 11
466360.9846919895
 21
6530100.661664909
 31
0.0
  0
LINE
  5
2A8
330
2
100
AcDbEntity
  8
MÄRK
100
AcDbLine
 10
466359.676340081
 20
6530099.711091605
 30
0.0
 11
466360.1760860408
 21
6530101.24915152
 31
0.0
  0
ELLIPSE
  5
2A9
330
2
100
AcDbEntity
  8
MÄRK
100
AcDbEllipse
 10
466360.9748075461
 20
6530101.499651136
 30
0.0
 11
-0.4628143775125524
 21
0.4628143775125524
 31
0.0
210
0.0
220
0.0
230
0.9999999999999998
 40
0.9999999996062436
 41
3.926990817184119
 42
10.2101761243637
  0
LINE
  5
2AA
330
2
100
AcDbEntity
  8
MÄRK
100
AcDbLine
 10
466360.1760860408
 20
6530101.24915152
 30
0.0
 11
466358.8677341322
 21
6530102.199724823
 31
0.0
  0
LINE
  5
2AB
330
2
100
AcDbEntity
  8
MÄRK
100
AcDbLine
 10
466360.4849460297
 20
6530102.199724823
 30
0.0
 11
466360.9846919895
 21
6530103.737784737
 31
0.0
  0
LINE
  5
2AC
330
2
100
AcDbEntity
  8
MÄRK
100
AcDbLine
 10
466361.4844379494
 20
6530102.199724823
 30
0.0
 11
466363.1016498468
 21
6530102.199724823
 31
0.0
  0
LINE
  5
2AD
330
2
100
AcDbEntity
  8
MÄRK
100
AcDbLine
 10
466361.7932979382
 20
6530101.24915152
 30
0.0
 11
466362.2930438981
 21
6530099.711091605
 31
0.0
  0
LINE
  5
2AE
330
2
100
AcDbEntity
  8
MÄRK
100
AcDbLine
 10
466360.9846919895
 20
6530100.661664909
 30
0.0
 11
466359.676340081
 21
6530099.711091605
 31
0.0
  0
LINE
  5
2AF
330
2
100
AcDbEntity
  8
MÄRK
100
AcDbLine
 10
466969.0569371769
 20
6529984.59137461
 30
0.0
 11
466969.5566831367
 21
6529983.053314697
 31
0.0
  0
LINE
  5
2B0
330
2
100
AcDbEntity
  8
MÄRK
100
AcDbLine
 10
466971.1738950343
 20
6529983.053314697
 30
0.0
 11
466969.8655431257
 21
6529982.102741394
 31
0.0
  0
LINE
  5
2B1
330
2
100
AcDbEntity
  8
MÄRK
100
AcDbLine
 10
466966.9399793195
 20
6529983.053314697
 30
0.0
 11
466968.5571912171
 21
6529983.053314697
 31
0.0
  0
LINE
  5
2B2
330
2
100
AcDbEntity
  8
MÄRK
100
AcDbLine
 10
466970.3652890855
 20
6529980.56468148
 30
0.0
 11
466969.0569371769
 21
6529981.515254783
 31
0.0
  0
LINE
  5
2B3
330
2
100
AcDbEntity
  8
MÄRK
100
AcDbLine
 10
466967.7485852683
 20
6529980.56468148
 30
0.0
 11
466968.2483312281
 21
6529982.102741394
 31
0.0
  0
ELLIPSE
  5
2B4
330
2
100
AcDbEntity
  8
MÄRK
100
AcDbEllipse
 10
466969.0470527335
 20
6529982.353241011
 30
0.0
 11
-0.4628143775125524
 21
0.4628143775125524
 31
0.0
210
0.0
220
0.0
230
0.9999999999999998
 40
0.9999999996062436
 41
3.926990817184119
 42
10.2101761243637
  0
LINE
  5
2B5
330
2
100
AcDbEntity
  8
MÄRK
100
AcDbLine
 10
466968.2483312281
 20
6529982.102741394
 30
0.0
 11
466966.9399793195
 21
6529983.053314697
 31
0.0
  0
LINE
  5
2B6
330
2
100
AcDbEntity
  8
MÄRK
100
AcDbLine
 10
466968.5571912171
 20
6529983.053314697
 30
0.0
 11
466969.0569371769
 21
6529984.59137461
 31
0.0
  0
LINE
  5
2B7
330
2
100
AcDbEntity
  8
MÄRK
100
AcDbLine
 10
466969.5566831367
 20
6529983.053314697
 30
0.0
 11
466971.1738950343
 21
6529983.053314697
 31
0.0
  0
LINE
  5
2B8
330
2
100
AcDbEntity
  8
MÄRK
100
AcDbLine
 10
466969.8655431257
 20
6529982.102741394
 30
0.0
 11
466970.3652890855
 21
6529980.56468148
 31
0.0
  0
LINE
  5
2B9
330
2
100
AcDbEntity
  8
MÄRK
100
AcDbLine
 10
466969.0569371769
 20
6529981.515254783
 30
0.0
 11
466967.7485852683
 21
6529980.56468148
 31
0.0
  0
LINE
  5
2D1
330
2
100
AcDbEntity
  8
HOONE
  6
KATUSEALL
 62
     5
 48
0.5
370
     0
100
AcDbLine
 10
466908.7105
 20
6529981.5903
 30
0.0
 11
466911.635
 21
6529984.63
 31
0.0
  0
LINE
  5
2D2
330
2
100
AcDbEntity
  8
HOONE
  6
KATUSEALL
 62
     5
 48
0.5
370
     0
100
AcDbLine
 10
466908.67
 20
6529984.59
 30
0.0
 11
466911.6755
 21
6529981.6303
 31
0.0
  0
LWPOLYLINE
  5
2D3
330
2
100
AcDbEntity
  8
HOONE
  6
KATUSEALL
 62
     5
 48
0.5
370
     0
100
AcDbPolyline
 90
        4
 70
     1
 43
0.0
 10
466908.6700000001
 20
6529984.590000002
 10
466911.6350318661
 20
6529984.630000431
 10
466911.6755
 20
6529981.6303
 10
466908.7104681341
 20
6529981.59029957
  0
TEXT
  5
2D4
330
2
100
AcDbEntity
  8
HOONE
  6
Continuous
 62
     5
370
     0
100
AcDbText
 10
466907.2920494885
 20
6529985.006417078
 30
0.0
 40
0.8
  1
nav.märk
 72
     1
 11
466910.0920494885
 21
6529985.406417079
 31
0.0
100
AcDbText
 73
     2
1001
MStation
1000
Lnkg
1002
{
1004
17109405000000006D6B6D74656B737469737469696C69004D616A61640000000000000000000000F401000000000000
1002
}
1001
ACAD
1000
RTMaterial
1005
0
  0
CIRCLE
  5
2D5
330
2
100
AcDbEntity
  8
MÄRK
100
AcDbCircle
 10
466910.1639397303
 20
6529983.118826012
 30
0.0
 40
0.25
  0
CIRCLE
  5
2E3
330
2
100
AcDbEntity
  8
MÄRK
  6
Continuous
100
AcDbCircle
 10
466436.7883242
 20
6529620.0788896
 30
0.0
 40
0.1643193606287241
  0
CIRCLE
  5
2E4
330
2
100
AcDbEntity
  8
MÄRK
  6
Continuous
100
AcDbCircle
 10
466281.1786189
 20
6529631.0870114
 30
0.0
 40
0.1643193606287241
  0
CIRCLE
  5
2E5
330
2
100
AcDbEntity
  8
MÄRK
  6
Continuous
100
AcDbCircle
 10
466385.643769163
 20
6529726.716065701
 30
0.0
 40
0.1643193606287241
  0
LINE
  5
2E6
330
2
100
AcDbEntity
  8
MÄRK
100
AcDbLine
 10
466966.9868150721
 20
6529983.017867614
 30
0.0
 11
466967.0182047179
 21
6529983.04925726
 31
0.0
  0
LINE
  5
2E7
330
2
100
AcDbEntity
  8
MÄRK
100
AcDbLine
 10
466967.0892027584
 20
6529982.943478605
 30
0.0
 11
466967.1949814125
 21
6529983.04925726
 31
0.0
  0
LINE
  5
2E8
330
2
100
AcDbEntity
  8
MÄRK
100
AcDbLine
 10
466967.1915904451
 20
6529982.869089596
 30
0.0
 11
466967.3717581075
 21
6529983.04925726
 31
0.0
  0
LINE
  5
2E9
330
2
100
AcDbEntity
  8
MÄRK
100
AcDbLine
 10
466967.2939781327
 20
6529982.794700589
 30
0.0
 11
466967.5485348036
 21
6529983.04925726
 31
0.0
  0
LINE
  5
2EA
330
2
100
AcDbEntity
  8
MÄRK
100
AcDbLine
 10
466969.0480423747
 20
6529984.54876483
 30
0.0
 11
466969.0669513173
 21
6529984.567673773
 31
0.0
  0
LINE
  5
2EB
330
2
100
AcDbEntity
  8
MÄRK
100
AcDbLine
 10
466967.3963658186
 20
6529982.720311579
 30
0.0
 11
466967.7253114985
 21
6529983.04925726
 31
0.0
  0
LINE
  5
2EC
330
2
100
AcDbEntity
  8
MÄRK
100
AcDbLine
 10
466968.9629588234
 20
6529984.286904583
 30
0.0
 11
466969.1103035524
 21
6529984.434249313
 31
0.0
  0
LINE
  5
2ED
330
2
100
AcDbEntity
  8
MÄRK
100
AcDbLine
 10
466967.4987535048
 20
6529982.64592257
 30
0.0
 11
466967.9020881937
 21
6529983.04925726
 31
0.0
  0
LINE
  5
2EE
330
2
100
AcDbEntity
  8
MÄRK
100
AcDbLine
 10
466968.8778752703
 20
6529984.025044337
 30
0.0
 11
466969.1536557874
 21
6529984.300824852
 31
0.0
  0
LINE
  5
2EF
330
2
100
AcDbEntity
  8
MÄRK
100
AcDbLine
 10
466967.6011411915
 20
6529982.571533563
 30
0.0
 11
466968.0788648888
 21
6529983.04925726
 31
0.0
  0
LINE
  5
2F0
330
2
100
AcDbEntity
  8
MÄRK
100
AcDbLine
 10
466968.7927917181
 20
6529983.763184089
 30
0.0
 11
466969.1970080226
 21
6529984.167400393
 31
0.0
  0
LINE
  5
2F1
330
2
100
AcDbEntity
  8
MÄRK
100
AcDbLine
 10
466967.7035288787
 20
6529982.497144553
 30
0.0
 11
466968.2556415848
 21
6529983.04925726
 31
0.0
  0
LINE
  5
2F2
330
2
100
AcDbEntity
  8
MÄRK
100
AcDbLine
 10
466968.7077081664
 20
6529983.501323841
 30
0.0
 11
466969.2403602581
 21
6529984.033975932
 31
0.0
  0
LINE
  5
2F3
330
2
100
AcDbEntity
  8
MÄRK
100
AcDbLine
 10
466967.8059165645
 20
6529982.422755543
 30
0.0
 11
466968.4324182798
 21
6529983.04925726
 31
0.0
  0
LINE
  5
2F4
330
2
100
AcDbEntity
  8
MÄRK
100
AcDbLine
 10
466968.6226246148
 20
6529983.239463594
 30
0.0
 11
466969.2837124923
 21
6529983.900551472
 31
0.0
  0
LINE
  5
2F5
330
2
100
AcDbEntity
  8
MÄRK
100
AcDbLine
 10
466967.9083042512
 20
6529982.348366536
 30
0.0
 11
466969.327064727
 21
6529983.767127011
 31
0.0
  0
LINE
  5
2F6
330
2
100
AcDbEntity
  8
MÄRK
100
AcDbLine
 10
466968.010691938
 20
6529982.273977528
 30
0.0
 11
466969.3704169626
 21
6529983.633702552
 31
0.0
  0
LINE
  5
2F7
330
2
100
AcDbEntity
  8
MÄRK
100
AcDbLine
 10
466968.1130796242
 20
6529982.199588517
 30
0.0
 11
466968.4138681879
 21
6529982.500377082
 31
0.0
  0
LINE
  5
2F8
330
2
100
AcDbEntity
  8
MÄRK
100
AcDbLine
 10
466968.899490837
 20
6529982.98599973
 30
0.0
 11
466969.4137691976
 21
6529983.500278091
 31
0.0
  0
LINE
  5
2F9
330
2
100
AcDbEntity
  8
MÄRK
100
AcDbLine
 10
466968.215467311
 20
6529982.12519951
 30
0.0
 11
466968.3975110855
 21
6529982.307243284
 31
0.0
  0
LINE
  5
2FA
330
2
100
AcDbEntity
  8
MÄRK
100
AcDbLine
 10
466969.0926246345
 20
6529983.002356833
 30
0.0
 11
466969.4571214328
 21
6529983.366853631
 31
0.0
  0
LINE
  5
2FB
330
2
100
AcDbEntity
  8
MÄRK
100
AcDbLine
 10
466968.1972068548
 20
6529981.930162358
 30
0.0
 11
466968.4247887581
 21
6529982.157744261
 31
0.0
  0
LINE
  5
2FC
330
2
100
AcDbEntity
  8
MÄRK
100
AcDbLine
 10
466969.2421236569
 20
6529982.97507916
 30
0.0
 11
466969.5004736679
 21
6529983.233429171
 31
0.0
  0
LINE
  5
2FD
330
2
100
AcDbEntity
  8
MÄRK
100
AcDbLine
 10
466968.1121233032
 20
6529981.668302111
 30
0.0
 11
466968.4773252015
 21
6529982.033504008
 31
0.0
  0
LINE
  5
2FE
330
2
100
AcDbEntity
  8
MÄRK
100
AcDbLine
 10
466969.366363909
 20
6529982.922542717
 30
0.0
 11
466969.5438259029
 21
6529983.100004711
 31
0.0
  0
LINE
  5
2FF
330
2
100
AcDbEntity
  8
MÄRK
100
AcDbLine
 10
466968.0270397514
 20
6529981.406441863
 30
0.0
 11
466968.5491897072
 21
6529981.928591819
 31
0.0
  0
LINE
  5
300
330
2
100
AcDbEntity
  8
MÄRK
100
AcDbLine
 10
466969.4712760988
 20
6529982.850678211
 30
0.0
 11
466969.6698551467
 21
6529983.04925726
 31
0.0
  0
LINE
  5
301
330
2
100
AcDbEntity
  8
MÄRK
100
AcDbLine
 10
466967.9419561993
 20
6529981.144581616
 30
0.0
 11
466968.6382961469
 21
6529981.840921564
 31
0.0
  0
LINE
  5
302
330
2
100
AcDbEntity
  8
MÄRK
100
AcDbLine
 10
466969.5589463543
 20
6529982.761571772
 30
0.0
 11
466969.8466318422
 21
6529983.04925726
 31
0.0
  0
LINE
  5
303
330
2
100
AcDbEntity
  8
MÄRK
100
AcDbLine
 10
466967.856872647
 20
6529980.882721369
 30
0.0
 11
466968.7447284963
 21
6529981.770577218
 31
0.0
  0
LINE
  5
304
330
2
100
AcDbEntity
  8
MÄRK
100
AcDbLine
 10
466969.6292907004
 20
6529982.655139422
 30
0.0
 11
466970.0234085373
 21
6529983.04925726
 31
0.0
  0
LINE
  5
305
330
2
100
AcDbEntity
  8
MÄRK
100
AcDbLine
 10
466967.7717890953
 20
6529980.620861122
 30
0.0
 11
466968.8707982106
 21
6529981.719870237
 31
0.0
  0
LINE
  5
306
330
2
100
AcDbEntity
  8
MÄRK
100
AcDbLine
 10
466969.6799976807
 20
6529982.529069708
 30
0.0
 11
466970.2001852323
 21
6529983.04925726
 31
0.0
  0
LINE
  5
307
330
2
100
AcDbEntity
  8
MÄRK
100
AcDbLine
 10
466968.2499609282
 20
6529980.922256259
 30
0.0
 11
466969.0229574246
 21
6529981.695252756
 31
0.0
  0
LINE
  5
308
330
2
100
AcDbEntity
  8
MÄRK
100
AcDbLine
 10
466969.7046151627
 20
6529982.376910494
 30
0.0
 11
466970.3769619278
 21
6529983.04925726
 31
0.0
  0
LINE
  5
309
330
2
100
AcDbEntity
  8
MÄRK
100
AcDbLine
 10
466968.8964113388
 20
6529981.391929975
 30
0.0
 11
466969.2219515089
 21
6529981.717470145
 31
0.0
  0
LINE
  5
30A
330
2
100
AcDbEntity
  8
MÄRK
100
AcDbLine
 10
466969.6823977735
 20
6529982.17791641
 30
0.0
 11
466970.5537386234
 21
6529983.04925726
 31
0.0
  0
LINE
  5
30B
330
2
100
AcDbEntity
  8
MÄRK
100
AcDbLine
 10
466969.1369564911
 20
6529981.455698433
 30
0.0
 11
466970.7305153184
 21
6529983.04925726
 31
0.0
  0
LINE
  5
30C
330
2
100
AcDbEntity
  8
MÄRK
100
AcDbLine
 10
466969.2393441768
 20
6529981.381309422
 30
0.0
 11
466969.8906437834
 21
6529982.032609028
 31
0.0
  0
LINE
  5
30D
330
2
100
AcDbEntity
  8
MÄRK
100
AcDbLine
 10
466970.1893121646
 20
6529982.33127741
 30
0.0
 11
466970.9072920135
 21
6529983.04925726
 31
0.0
  0
LINE
  5
30E
330
2
100
AcDbEntity
  8
MÄRK
100
AcDbLine
 10
466969.3417318636
 20
6529981.306920412
 30
0.0
 11
466969.933996019
 21
6529981.899184567
 31
0.0
  0
LINE
  5
30F
330
2
100
AcDbEntity
  8
MÄRK
100
AcDbLine
 10
466970.835762579
 20
6529982.800951129
 30
0.0
 11
466971.084068709
 21
6529983.04925726
 31
0.0
  0
LINE
  5
310
330
2
100
AcDbEntity
  8
MÄRK
100
AcDbLine
 10
466969.4441195503
 20
6529981.232531404
 30
0.0
 11
466969.977348254
 21
6529981.765760108
 31
0.0
  0
LINE
  5
311
330
2
100
AcDbEntity
  8
MÄRK
100
AcDbLine
 10
466969.546507237
 20
6529981.158142397
 30
0.0
 11
466970.0207004892
 21
6529981.632335648
 31
0.0
  0
LINE
  5
312
330
2
100
AcDbEntity
  8
MÄRK
100
AcDbLine
 10
466969.6488949233
 20
6529981.083753389
 30
0.0
 11
466970.0640527243
 21
6529981.498911189
 31
0.0
  0
LINE
  5
313
330
2
100
AcDbEntity
  8
MÄRK
100
AcDbLine
 10
466969.7512826105
 20
6529981.009364379
 30
0.0
 11
466970.1074049599
 21
6529981.365486728
 31
0.0
  0
LINE
  5
314
330
2
100
AcDbEntity
  8
MÄRK
100
AcDbLine
 10
466969.8536702972
 20
6529980.934975371
 30
0.0
 11
466970.150757194
 21
6529981.232062267
 31
0.0
  0
LINE
  5
315
330
2
100
AcDbEntity
  8
MÄRK
100
AcDbLine
 10
466969.9560579839
 20
6529980.860586362
 30
0.0
 11
466970.1941094287
 21
6529981.098637806
 31
0.0
  0
LINE
  5
316
330
2
100
AcDbEntity
  8
MÄRK
100
AcDbLine
 10
466970.0584456702
 20
6529980.786197353
 30
0.0
 11
466970.2374616638
 21
6529980.965213347
 31
0.0
  0
LINE
  5
317
330
2
100
AcDbEntity
  8
MÄRK
100
AcDbLine
 10
466970.1608333564
 20
6529980.711808344
 30
0.0
 11
466970.2808138993
 21
6529980.831788886
 31
0.0
  0
LINE
  5
318
330
2
100
AcDbEntity
  8
MÄRK
100
AcDbLine
 10
466970.2632210432
 20
6529980.637419336
 30
0.0
 11
466970.3241661344
 21
6529980.698364426
 31
0.0
  0
LINE
  5
319
330
2
100
AcDbEntity
  8
MÄRK
100
AcDbLine
 10
466970.3656087299
 20
6529980.563030327
 30
0.0
 11
466970.3675183691
 21
6529980.564939967
 31
0.0
  0
LINE
  5
31A
330
2
100
AcDbEntity
  8
MÄRK
100
AcDbLine
 10
466908.1639314689
 20
6529983.768730326
 30
0.0
 11
466908.2320372598
 21
6529983.836836116
 31
0.0
  0
LINE
  5
31B
330
2
100
AcDbEntity
  8
MÄRK
100
AcDbLine
 10
466908.2663191557
 20
6529983.694341318
 30
0.0
 11
466908.4088139547
 21
6529983.836836116
 31
0.0
  0
LINE
  5
31C
330
2
100
AcDbEntity
  8
MÄRK
100
AcDbLine
 10
466908.3687068429
 20
6529983.619952308
 30
0.0
 11
466908.5855906508
 21
6529983.836836116
 31
0.0
  0
LINE
  5
31D
330
2
100
AcDbEntity
  8
MÄRK
100
AcDbLine
 10
466908.4710945296
 20
6529983.545563301
 30
0.0
 11
466908.7623673458
 21
6529983.836836116
 31
0.0
  0
LINE
  5
31E
330
2
100
AcDbEntity
  8
MÄRK
100
AcDbLine
 10
466910.1326286862
 20
6529985.207097458
 30
0.0
 11
466910.2149296156
 21
6529985.289398386
 31
0.0
  0
LINE
  5
31F
330
2
100
AcDbEntity
  8
MÄRK
100
AcDbLine
 10
466908.5734822149
 20
6529983.47117429
 30
0.0
 11
466908.9391440409
 21
6529983.836836116
 31
0.0
  0
LINE
  5
320
330
2
100
AcDbEntity
  8
MÄRK
100
AcDbLine
 10
466910.047545134
 20
6529984.94523721
 30
0.0
 11
466910.2582818507
 21
6529985.155973926
 31
0.0
  0
LINE
  5
321
330
2
100
AcDbEntity
  8
MÄRK
100
AcDbLine
 10
466908.6758699016
 20
6529983.396785283
 30
0.0
 11
466909.115920736
 21
6529983.836836116
 31
0.0
  0
LINE
  5
322
330
2
100
AcDbEntity
  8
MÄRK
100
AcDbLine
 10
466909.9624615824
 20
6529984.683376964
 30
0.0
 11
466910.3016340863
 21
6529985.022549467
 31
0.0
  0
LINE
  5
323
330
2
100
AcDbEntity
  8
MÄRK
100
AcDbLine
 10
466908.7782575893
 20
6529983.322396275
 30
0.0
 11
466909.292697432
 21
6529983.836836116
 31
0.0
  0
LINE
  5
324
330
2
100
AcDbEntity
  8
MÄRK
100
AcDbLine
 10
466909.8773780302
 20
6529984.421516715
 30
0.0
 11
466910.3449863214
 21
6529984.889125006
 31
0.0
  0
LINE
  5
325
330
2
100
AcDbEntity
  8
MÄRK
100
AcDbLine
 10
466908.8806452756
 20
6529983.248007266
 30
0.0
 11
466909.4694741271
 21
6529983.836836116
 31
0.0
  0
LINE
  5
326
330
2
100
AcDbEntity
  8
MÄRK
100
AcDbLine
 10
466909.792294478
 20
6529984.159656468
 30
0.0
 11
466910.3883385565
 21
6529984.755700546
 31
0.0
  0
LINE
  5
327
330
2
100
AcDbEntity
  8
MÄRK
100
AcDbLine
 10
466908.9830329623
 20
6529983.173618257
 30
0.0
 11
466909.6462508221
 21
6529983.836836116
 31
0.0
  0
LINE
  5
328
330
2
100
AcDbEntity
  8
MÄRK
100
AcDbLine
 10
466909.7072109258
 20
6529983.897796221
 30
0.0
 11
466910.4316907916
 21
6529984.622276087
 31
0.0
  0
LINE
  5
329
330
2
100
AcDbEntity
  8
MÄRK
100
AcDbLine
 10
466909.085420649
 20
6529983.099229248
 30
0.0
 11
466910.4750430267
 21
6529984.488851627
 31
0.0
  0
LINE
  5
32A
330
2
100
AcDbEntity
  8
MÄRK
100
AcDbLine
 10
466909.1878083363
 20
6529983.024840239
 30
0.0
 11
466909.5912555097
 21
6529983.428287413
 31
0.0
  0
LINE
  5
32B
330
2
100
AcDbEntity
  8
MÄRK
100
AcDbLine
 10
466909.8857403225
 20
6529983.722772226
 30
0.0
 11
466910.5183952622
 21
6529984.355427167
 31
0.0
  0
LINE
  5
32C
330
2
100
AcDbEntity
  8
MÄRK
100
AcDbLine
 10
466909.290196022
 20
6529982.950451231
 30
0.0
 11
466909.5245095529
 21
6529983.184764761
 31
0.0
  0
LINE
  5
32D
330
2
100
AcDbEntity
  8
MÄRK
100
AcDbLine
 10
466910.1292629745
 20
6529983.789518183
 30
0.0
 11
466910.5617474964
 21
6529984.222002706
 31
0.0
  0
LINE
  5
32E
330
2
100
AcDbEntity
  8
MÄRK
100
AcDbLine
 10
466909.3668767181
 20
6529982.850355231
 30
0.0
 11
466909.5337539376
 21
6529983.017232451
 31
0.0
  0
LINE
  5
32F
330
2
100
AcDbEntity
  8
MÄRK
100
AcDbLine
 10
466910.2967952848
 20
6529983.780273798
 30
0.0
 11
466910.6050997316
 21
6529984.088578245
 31
0.0
  0
LINE
  5
330
330
2
100
AcDbEntity
  8
MÄRK
100
AcDbLine
 10
466909.281793166
 20
6529982.588494984
 30
0.0
 11
466909.5746415448
 21
6529982.881343364
 31
0.0
  0
LINE
  5
331
330
2
100
AcDbEntity
  8
MÄRK
100
AcDbLine
 10
466910.4326843727
 20
6529983.739386191
 30
0.0
 11
466910.6484519662
 21
6529983.955153785
 31
0.0
  0
LINE
  5
332
330
2
100
AcDbEntity
  8
MÄRK
100
AcDbLine
 10
466909.1967096142
 20
6529982.326634737
 30
0.0
 11
466909.6371494243
 21
6529982.767074547
 31
0.0
  0
LINE
  5
333
330
2
100
AcDbEntity
  8
MÄRK
100
AcDbLine
 10
466910.5469531891
 20
6529983.676878312
 30
0.0
 11
466910.7069109939
 21
6529983.836836116
 31
0.0
  0
LINE
  5
334
330
2
100
AcDbEntity
  8
MÄRK
100
AcDbLine
 10
466909.1116260621
 20
6529982.064774489
 30
0.0
 11
466909.7176361634
 21
6529982.67078459
 31
0.0
  0
LINE
  5
335
330
2
100
AcDbEntity
  8
MÄRK
100
AcDbLine
 10
466910.6432431452
 20
6529983.596391573
 30
0.0
 11
466910.8836876894
 21
6529983.836836116
 31
0.0
  0
LINE
  5
336
330
2
100
AcDbEntity
  8
MÄRK
100
AcDbLine
 10
466909.0265425103
 20
6529981.802914242
 30
0.0
 11
466909.8151613618
 21
6529982.591533094
 31
0.0
  0
LINE
  5
337
330
2
100
AcDbEntity
  8
MÄRK
100
AcDbLine
 10
466910.7224946418
 20
6529983.498866373
 30
0.0
 11
466911.0604643845
 21
6529983.836836116
 31
0.0
  0
LINE
  5
338
330
2
100
AcDbEntity
  8
MÄRK
100
AcDbLine
 10
466908.9414589587
 20
6529981.541053996
 30
0.0
 11
466909.9308189181
 21
6529982.530413956
 31
0.0
  0
LINE
  5
339
330
2
100
AcDbEntity
  8
MÄRK
100
AcDbLine
 10
466910.7836137805
 20
6529983.383208818
 30
0.0
 11
466911.2372410796
 21
6529983.836836116
 31
0.0
  0
LINE
  5
33A
330
2
100
AcDbEntity
  8
MÄRK
100
AcDbLine
 10
466909.0491596818
 20
6529981.471978024
 30
0.0
 11
466910.068522321
 21
6529982.491340661
 31
0.0
  0
LINE
  5
33B
330
2
100
AcDbEntity
  8
MÄRK
100
AcDbLine
 10
466910.8226870741
 20
6529983.245505414
 30
0.0
 11
466911.4140177751
 21
6529983.836836116
 31
0.0
  0
LINE
  5
33C
330
2
100
AcDbEntity
  8
MÄRK
100
AcDbLine
 10
466909.6956100925
 20
6529981.941651739
 30
0.0
 11
466910.2391329636
 21
6529982.48517461
 31
0.0
  0
LINE
  5
33D
330
2
100
AcDbEntity
  8
MÄRK
100
AcDbLine
 10
466910.8288531261
 20
6529983.074894772
 30
0.0
 11
466911.5907944706
 21
6529983.836836116
 31
0.0
  0
LINE
  5
33E
330
2
100
AcDbEntity
  8
MÄRK
100
AcDbLine
 10
466910.2116852012
 20
6529982.280950153
 30
0.0
 11
466910.4956185557
 21
6529982.564883507
 31
0.0
  0
LINE
  5
33F
330
2
100
AcDbEntity
  8
MÄRK
100
AcDbLine
 10
466910.7491442291
 20
6529982.81840918
 30
0.0
 11
466911.7675711657
 21
6529983.836836116
 31
0.0
  0
LINE
  5
340
330
2
100
AcDbEntity
  8
MÄRK
100
AcDbLine
 10
466910.3140728878
 20
6529982.206561144
 30
0.0
 11
466911.9443478607
 21
6529983.836836116
 31
0.0
  0
LINE
  5
341
330
2
100
AcDbEntity
  8
MÄRK
100
AcDbLine
 10
466910.4164605751
 20
6529982.132172135
 30
0.0
 11
466911.0386220827
 21
6529982.754333643
 31
0.0
  0
LINE
  5
342
330
2
100
AcDbEntity
  8
MÄRK
100
AcDbLine
 10
466911.6349613331
 20
6529983.350672893
 30
0.0
 11
466912.1211245572
 21
6529983.836836118
 31
0.0
  0
LINE
  5
343
330
2
100
AcDbEntity
  8
MÄRK
100
AcDbLine
 10
466910.5188482609
 20
6529982.057783126
 30
0.0
 11
466911.0819743173
 21
6529982.620909183
 31
0.0
  0
LINE
  5
344
330
2
100
AcDbEntity
  8
MÄRK
100
AcDbLine
 10
466912.2814117451
 20
6529983.82034661
 30
0.0
 11
466912.2979012523
 21
6529983.836836118
 31
0.0
  0
LINE
  5
345
330
2
100
AcDbEntity
  8
MÄRK
100
AcDbLine
 10
466910.6212359475
 20
6529981.983394118
 30
0.0
 11
466911.1253265525
 21
6529982.487484723
 31
0.0
  0
LINE
  5
346
330
2
100
AcDbEntity
  8
MÄRK
100
AcDbLine
 10
466910.7236236343
 20
6529981.909005109
 30
0.0
 11
466911.1686787875
 21
6529982.354060263
 31
0.0
  0
LINE
  5
347
330
2
100
AcDbEntity
  8
MÄRK
100
AcDbLine
 10
466910.8260113211
 20
6529981.8346161
 30
0.0
 11
466911.2120310231
 21
6529982.220635802
 31
0.0
  0
LINE
  5
348
330
2
100
AcDbEntity
  8
MÄRK
100
AcDbLine
 10
466910.9283990077
 20
6529981.760227092
 30
0.0
 11
466911.2553832582
 21
6529982.087211342
 31
0.0
  0
LINE
  5
349
330
2
100
AcDbEntity
  8
MÄRK
100
AcDbLine
 10
466911.0307866945
 20
6529981.685838083
 30
0.0
 11
466911.2987354933
 21
6529981.953786882
 31
0.0
  0
LINE
  5
34A
330
2
100
AcDbEntity
  8
MÄRK
100
AcDbLine
 10
466911.1331743808
 20
6529981.611449073
 30
0.0
 11
466911.3420877284
 21
6529981.820362421
 31
0.0
  0
LINE
  5
34B
330
2
100
AcDbEntity
  8
MÄRK
100
AcDbLine
 10
466911.2355620679
 20
6529981.537060065
 30
0.0
 11
466911.3854399631
 21
6529981.68693796
 31
0.0
  0
LINE
  5
34C
330
2
100
AcDbEntity
  8
MÄRK
100
AcDbLine
 10
466911.3379497542
 20
6529981.462671056
 30
0.0
 11
466911.4287921977
 21
6529981.553513501
 31
0.0
  0
LINE
  5
34D
330
2
100
AcDbEntity
  8
MÄRK
100
AcDbLine
 10
466911.4403374409
 20
6529981.388282049
 30
0.0
 11
466911.4721444333
 21
6529981.420089041
 31
0.0
  0
LINE
  5
34E
330
2
100
AcDbEntity
  8
MÄRK
 62
     0
100
AcDbLine
 10
466777.7337156651
 20
6529645.8170863
 30
0.0
 11
466777.7659181338
 21
6529645.849288769
 31
0.0
  0
LINE
  5
34F
330
2
100
AcDbEntity
  8
MÄRK
 62
     0
100
AcDbLine
 10
466777.8361033504
 20
6529645.74269729
 30
0.0
 11
466777.9426948288
 21
6529645.849288769
 31
0.0
  0
LINE
  5
350
330
2
100
AcDbEntity
  8
MÄRK
 62
     0
100
AcDbLine
 10
466777.9384910371
 20
6529645.668308282
 30
0.0
 11
466778.1194715239
 21
6529645.849288769
 31
0.0
  0
LINE
  5
351
330
2
100
AcDbEntity
  8
MÄRK
 62
     0
100
AcDbLine
 10
466778.0408787233
 20
6529645.593919274
 30
0.0
 11
466778.2962482195
 21
6529645.849288769
 31
0.0
  0
LINE
  5
352
330
2
100
AcDbEntity
  8
MÄRK
 62
     0
100
AcDbLine
 10
466779.7928945301
 20
6529647.345935081
 30
0.0
 11
466779.8132068482
 21
6529647.366247397
 31
0.0
  0
LINE
  5
353
330
2
100
AcDbEntity
  8
MÄRK
 62
     0
100
AcDbLine
 10
466778.1432664106
 20
6529645.519530264
 30
0.0
 11
466778.4730249141
 21
6529645.849288769
 31
0.0
  0
LINE
  5
354
330
2
100
AcDbEntity
  8
MÄRK
 62
     0
100
AcDbLine
 10
466779.7078109774
 20
6529647.084074831
 30
0.0
 11
466779.8565590838
 21
6529647.232822938
 31
0.0
  0
LINE
  5
355
330
2
100
AcDbEntity
  8
MÄRK
 62
     0
100
AcDbLine
 10
466778.2456540972
 20
6529645.445141255
 30
0.0
 11
466778.6498016096
 21
6529645.849288769
 31
0.0
  0
LINE
  5
356
330
2
100
AcDbEntity
  8
MÄRK
 62
     0
100
AcDbLine
 10
466779.6227274262
 20
6529646.822214584
 30
0.0
 11
466779.8999113189
 21
6529647.099398476
 31
0.0
  0
LINE
  5
357
330
2
100
AcDbEntity
  8
MÄRK
 62
     0
100
AcDbLine
 10
466778.3480417836
 20
6529645.370752247
 30
0.0
 11
466778.8265783046
 21
6529645.849288769
 31
0.0
  0
LINE
  5
358
330
2
100
AcDbEntity
  8
MÄRK
 62
     0
100
AcDbLine
 10
466779.5376438741
 20
6529646.560354337
 30
0.0
 11
466779.9432635535
 21
6529646.965974018
 31
0.0
  0
LINE
  5
359
330
2
100
AcDbEntity
  8
MÄRK
 62
     0
100
AcDbLine
 10
466778.4504294703
 20
6529645.29636324
 30
0.0
 11
466779.0033549997
 21
6529645.849288769
 31
0.0
  0
LINE
  5
35A
330
2
100
AcDbEntity
  8
MÄRK
 62
     0
100
AcDbLine
 10
466779.4525603219
 20
6529646.298494091
 30
0.0
 11
466779.9866157887
 21
6529646.832549557
 31
0.0
  0
LINE
  5
35B
330
2
100
AcDbEntity
  8
MÄRK
 62
     0
100
AcDbLine
 10
466778.5528171575
 20
6529645.221974229
 30
0.0
 11
466779.1801316952
 21
6529645.849288769
 31
0.0
  0
LINE
  5
35C
330
2
100
AcDbEntity
  8
MÄRK
 62
     0
100
AcDbLine
 10
466779.3674767702
 20
6529646.036633844
 30
0.0
 11
466780.0299680237
 21
6529646.699125096
 31
0.0
  0
LINE
  5
35D
330
2
100
AcDbEntity
  8
MÄRK
 62
     0
100
AcDbLine
 10
466778.6552048433
 20
6529645.14758522
 30
0.0
 11
466780.0733202589
 21
6529646.565700637
 31
0.0
  0
LINE
  5
35E
330
2
100
AcDbEntity
  8
MÄRK
 62
     0
100
AcDbLine
 10
466778.75759253
 20
6529645.073196213
 30
0.0
 11
466780.116672493
 21
6529646.432276177
 31
0.0
  0
LINE
  5
35F
330
2
100
AcDbEntity
  8
MÄRK
 62
     0
100
AcDbLine
 10
466778.8599802167
 20
6529644.998807205
 30
0.0
 11
466779.1590555808
 21
6529645.297882568
 31
0.0
  0
LINE
  5
360
330
2
100
AcDbEntity
  8
MÄRK
 62
     0
100
AcDbLine
 10
466779.647798697
 20
6529645.786625684
 30
0.0
 11
466780.1600247281
 21
6529646.298851716
 31
0.0
  0
LINE
  5
361
330
2
100
AcDbEntity
  8
MÄRK
 62
     0
100
AcDbLine
 10
466778.9623679039
 20
6529644.924418196
 30
0.0
 11
466779.1434118398
 21
6529645.105462131
 31
0.0
  0
LINE
  5
362
330
2
100
AcDbEntity
  8
MÄRK
 62
     0
100
AcDbLine
 10
466779.8402191335
 20
6529645.802269425
 30
0.0
 11
466780.2033769637
 21
6529646.165427256
 31
0.0
  0
LINE
  5
363
330
2
100
AcDbEntity
  8
MÄRK
 62
     0
100
AcDbLine
 10
466778.9420590093
 20
6529644.727332606
 30
0.0
 11
466779.171024479
 21
6529644.956298076
 31
0.0
  0
LINE
  5
364
330
2
100
AcDbEntity
  8
MÄRK
 62
     0
100
AcDbLine
 10
466779.9893831895
 20
6529645.774656786
 30
0.0
 11
466780.2467291989
 21
6529646.032002796
 31
0.0
  0
LINE
  5
365
330
2
100
AcDbEntity
  8
MÄRK
 62
     0
100
AcDbLine
 10
466778.8569754572
 20
6529644.465472359
 30
0.0
 11
466779.2237940388
 21
6529644.832290941
 31
0.0
  0
LINE
  5
366
330
2
100
AcDbEntity
  8
MÄRK
 62
     0
100
AcDbLine
 10
466780.1133903246
 20
6529645.721887226
 30
0.0
 11
466780.2900814339
 21
6529645.898578336
 31
0.0
  0
LINE
  5
367
330
2
100
AcDbEntity
  8
MÄRK
 62
     0
100
AcDbLine
 10
466778.7718919059
 20
6529644.203612113
 30
0.0
 11
466779.2958536148
 21
6529644.727573821
 31
0.0
  0
LINE
  5
368
330
2
100
AcDbEntity
  8
MÄRK
 62
     0
100
AcDbLine
 10
466780.2181074438
 20
6529645.64982765
 30
0.0
 11
466780.417568563
 21
6529645.849288769
 31
0.0
  0
LINE
  5
369
330
2
100
AcDbEntity
  8
MÄRK
 62
     0
100
AcDbLine
 10
466778.6868083542
 20
6529643.941751865
 30
0.0
 11
466779.3851453727
 21
6529644.640088884
 31
0.0
  0
LINE
  5
36A
330
2
100
AcDbEntity
  8
MÄRK
 62
     0
100
AcDbLine
 10
466780.3055923818
 20
6529645.560535892
 30
0.0
 11
466780.5943452585
 21
6529645.849288769
 31
0.0
  0
LINE
  5
36B
330
2
100
AcDbEntity
  8
MÄRK
 62
     0
100
AcDbLine
 10
466778.6017248021
 20
6529643.679891618
 30
0.0
 11
466779.4917749655
 21
6529644.569941781
 31
0.0
  0
LINE
  5
36C
330
2
100
AcDbEntity
  8
MÄRK
 62
     0
100
AcDbLine
 10
466780.3757394841
 20
6529645.453906299
 30
0.0
 11
466780.7711219536
 21
6529645.849288769
 31
0.0
  0
LINE
  5
36D
330
2
100
AcDbEntity
  8
MÄRK
 62
     0
100
AcDbLine
 10
466778.5166412508
 20
6529643.41803137
 30
0.0
 11
466779.6180837443
 21
6529644.519473865
 31
0.0
  0
LINE
  5
36E
330
2
100
AcDbEntity
  8
MÄRK
 62
     0
100
AcDbLine
 10
466780.4262074004
 20
6529645.327597521
 30
0.0
 11
466780.9478986487
 21
6529645.849288769
 31
0.0
  0
LINE
  5
36F
330
2
100
AcDbEntity
  8
MÄRK
 62
     0
100
AcDbLine
 10
466779.0028063143
 20
6529643.727419739
 30
0.0
 11
466779.7705948017
 21
6529644.495208227
 31
0.0
  0
LINE
  5
370
330
2
100
AcDbEntity
  8
MÄRK
 62
     0
100
AcDbLine
 10
466780.450473038
 20
6529645.175086463
 30
0.0
 11
466781.1246753442
 21
6529645.849288769
 31
0.0
  0
LINE
  5
371
330
2
100
AcDbEntity
  8
MÄRK
 62
     0
100
AcDbLine
 10
466779.6492567267
 20
6529644.197093455
 30
0.0
 11
466779.9703916404
 21
6529644.518228369
 31
0.0
  0
LINE
  5
372
330
2
100
AcDbEntity
  8
MÄRK
 62
     0
100
AcDbLine
 10
466780.4274528953
 20
6529644.975289624
 30
0.0
 11
466781.3014520397
 21
6529645.849288769
 31
0.0
  0
LINE
  5
373
330
2
100
AcDbEntity
  8
MÄRK
 62
     0
100
AcDbLine
 10
466779.8838570821
 20
6529644.254917116
 30
0.0
 11
466781.4782287348
 21
6529645.849288769
 31
0.0
  0
LINE
  5
374
330
2
100
AcDbEntity
  8
MÄRK
 62
     0
100
AcDbLine
 10
466779.9862447697
 20
6529644.18052811
 30
0.0
 11
466780.6368993143
 21
6529644.831182653
 31
0.0
  0
LINE
  5
375
330
2
100
AcDbEntity
  8
MÄRK
 62
     0
100
AcDbLine
 10
466780.9421575522
 20
6529645.136440891
 30
0.0
 11
466781.6550054299
 21
6529645.849288769
 31
0.0
  0
LINE
  5
376
330
2
100
AcDbEntity
  8
MÄRK
 62
     0
100
AcDbLine
 10
466780.0886324555
 20
6529644.1061391
 30
0.0
 11
466780.6802515495
 21
6529644.697758194
 31
0.0
  0
LINE
  5
377
330
2
100
AcDbEntity
  8
MÄRK
 62
     0
100
AcDbLine
 10
466781.5886079655
 20
6529645.606114609
 30
0.0
 11
466781.8317821254
 21
6529645.849288769
 31
0.0
  0
LINE
  5
378
330
2
100
AcDbEntity
  8
MÄRK
 62
     0
100
AcDbLine
 10
466780.1910201427
 20
6529644.031750091
 30
0.0
 11
466780.7236037851
 21
6529644.564333733
 31
0.0
  0
LINE
  5
379
330
2
100
AcDbEntity
  8
MÄRK
 62
     0
100
AcDbLine
 10
466780.2934078294
 20
6529643.957361082
 30
0.0
 11
466780.7669560201
 21
6529644.430909273
 31
0.0
  0
LINE
  5
37A
330
2
100
AcDbEntity
  8
MÄRK
 62
     0
100
AcDbLine
 10
466780.3957955162
 20
6529643.882972075
 30
0.0
 11
466780.8103082553
 21
6529644.297484813
 31
0.0
  0
LINE
  5
37B
330
2
100
AcDbEntity
  8
MÄRK
 62
     0
100
AcDbLine
 10
466780.498183203
 20
6529643.808583066
 30
0.0
 11
466780.8536604899
 21
6529644.164060353
 31
0.0
  0
LINE
  5
37C
330
2
100
AcDbEntity
  8
MÄRK
 62
     0
100
AcDbLine
 10
466780.6005708892
 20
6529643.734194056
 30
0.0
 11
466780.897012726
 21
6529644.030635893
 31
0.0
  0
LINE
  5
37D
330
2
100
AcDbEntity
  8
MÄRK
 62
     0
100
AcDbLine
 10
466780.7029585759
 20
6529643.659805048
 30
0.0
 11
466780.940364961
 21
6529643.897211432
 31
0.0
  0
LINE
  5
37E
330
2
100
AcDbEntity
  8
MÄRK
 62
     0
100
AcDbLine
 10
466780.8053462627
 20
6529643.585416039
 30
0.0
 11
466780.9837171957
 21
6529643.763786972
 31
0.0
  0
LINE
  5
37F
330
2
100
AcDbEntity
  8
MÄRK
 62
     0
100
AcDbLine
 10
466780.9077339489
 20
6529643.51102703
 30
0.0
 11
466781.0270694299
 21
6529643.630362511
 31
0.0
  0
LINE
  5
380
330
2
100
AcDbEntity
  8
MÄRK
 62
     0
100
AcDbLine
 10
466781.010121636
 20
6529643.436638021
 30
0.0
 11
466781.0704216655
 21
6529643.496938051
 31
0.0
  0
LINE
  5
381
330
2
100
AcDbEntity
  8
MÄRK
 62
     0
100
AcDbLine
 10
466781.1125093224
 20
6529643.362249013
 30
0.0
 11
466781.1137739006
 21
6529643.36351359
 31
0.0
  0
ENDSEC
  0
SECTION
  2
OBJECTS
  0
DICTIONARY
  5
A
330
0
100
AcDbDictionary
281
     1
  3
ACAD_COLOR
350
2D
  3
ACAD_GROUP
350
29
  3
ACAD_LAYOUT
350
10
  3
ACAD_MATERIAL
350
2C
  3
ACAD_MLINESTYLE
350
2A
  3
ACAD_PLOTSETTINGS
350
2B
  3
ACAD_PLOTSTYLENAME
350
9
1001
ADE
1000
ADE02C004
1000
[Query]
1000
CaseSensitiveMatch=0
1000
SaveCurrQueryInSession=1
1000
MkSelSetWithQryObj=0
1000
ShowBlockAsInsPt=0
1000
CreateAssociativeHatchObjects=0
1000
ReferenceBoundaryForAreaLocation=1
1000
ShowImageAsBoundary=1
1000
DefaultJoinOperator=2
1000
ColorForAdd=red
1000
ColorForRemove=red
1000
BlockLocnForQuery=1
1000
TextLocnForQuery=1
1000
[Save Back]
1000
RedefineBlockDefinitions=1
1000
RedefineLayerDefinitions=1
1000
RedefineTextStyleDefinitions=1
1000
RemoveUnusedGroups=1
1000
EraseSavedBackObjects=1
1000
RemoveLockAfterSave=1
1000
CreateHistoryFileOfChanges=0
1000
CreateBackupFileOfSourceDwg=1
1000
DontAddObjectsToSaveSet=0
1000
MarkObjectsForEditingWithoutPrompting=0
1000
[Coordinate Transformation]
1000
RestoreLastActiveDwgsOnStartup=1
1000
ActivateDwgsOnAttach=1
1000
AdjustSizesAndScalesForChangesInUnits=1
1000
AdjustRotationsForMapDistortions=1
1000
AdjustSizesAndScalesForMapDistortions=1
1000
AdjustElevations=1
1000
AdjustZeroRotationObjects=1
1000
ReconnectDbOnWSOpen=1
1000
NoOfSQLConditionsInHistory=10
  0
DICTIONARY
  5
18
330
17
100
AcDbDictionary
280
     1
281
     1
  3
ACAD_LAYERFILTERS
360
19
  3
ACAD_LAYERSTATES
360
1A
  0
DICTIONARY
  5
2C3
330
2C2
100
AcDbDictionary
280
     1
281
     1
  3
ADSK_XREC_LAYER_RECONCILED
360
2C4
  0
DICTIONARY
  5
3
330
2
100
AcDbDictionary
280
     1
281
     1
  3
ACAD_LAYOUTSELFREF
360
4
  3
ACAD_SORTENTS
360
2BA
  0
DICTIONARY
  5
12
330
11
100
AcDbDictionary
280
     1
281
     1
  3
ACAD_LAYOUTSELFREF
360
13
  0
DICTIONARY
  5
2D
102
{ACAD_REACTORS
330
A
102
}
330
A
100
AcDbDictionary
281
     1
  0
DICTIONARY
  5
29
102
{ACAD_REACTORS
330
25
102
}
330
A
100
AcDbDictionary
281
     1
  0
DICTIONARY
  5
10
102
{ACAD_REACTORS
330
A
102
}
330
A
100
AcDbDictionary
281
     1
  3
Layout1
350
16
  3
Model
350
F
  0
DICTIONARY
  5
2C
102
{ACAD_REACTORS
330
A
102
}
330
A
100
AcDbDictionary
281
     1
  0
DICTIONARY
  5
2A
102
{ACAD_REACTORS
330
25
102
}
330
A
100
AcDbDictionary
281
     1
  3
RAUDTEE
350
2C8
  3
STANDARD
350
30
  0
DICTIONARY
  5
2B
102
{ACAD_REACTORS
330
A
102
}
330
A
100
AcDbDictionary
281
     1
  0
ACDBDICTIONARYWDFLT
  5
9
102
{ACAD_REACTORS
330
A
102
}
330
A
100
AcDbDictionary
281
     1
  3
Normal
350
8
100
AcDbDictionaryWithDefault
340
8
  0
DICTIONARY
  5
19
102
{ACAD_REACTORS
330
18
102
}
330
18
100
AcDbDictionary
281
     1
  0
DICTIONARY
  5
1A
102
{ACAD_REACTORS
330
18
102
}
330
18
100
AcDbDictionary
281
     1
  0
XRECORD
  5
2C4
102
{ACAD_REACTORS
330
2C3
102
}
330
2C3
100
AcDbXrecord
280
     1
290
     1
  0
XRECORD
  5
4
102
{ACAD_REACTORS
330
3
102
}
330
3
100
AcDbXrecord
280
     1
340
2
  0
SORTENTSTABLE
  5
2BA
102
{ACAD_REACTORS
330
3
102
}
330
3
100
AcDbSortentsTable
330
2
  0
XRECORD
  5
13
102
{ACAD_REACTORS
330
12
102
}
330
12
100
AcDbXrecord
280
     1
340
11
  0
LAYOUT
  5
16
102
{ACAD_REACTORS
330
10
102
}
330
10
100
AcDbPlotSettings
  1

  2
C:\Program Files\ACAD2000\plotters\DWF Classic.pc3
  4

  6

 40
0.0
 41
0.0
 42
0.0
 43
0.0
 44
0.0
 45
0.0
 46
0.0
 47
0.0
 48
0.0
 49
0.0
140
0.0
141
0.0
142
1.0
143
1.0
 70
   688
 72
     0
 73
     0
 74
     5
  7
acad_pets.ctb
 75
    16
147
1.0
 76
     0
 77
     2
 78
   300
148
0.0
149
0.0
100
AcDbLayout
  1
Layout1
 70
     1
 71
     1
 10
0.0
 20
0.0
 11
12.0
 21
9.0
 12
0.0
 22
0.0
 32
0.0
 14
1.000000000000000E+20
 24
1.000000000000000E+20
 34
1.000000000000000E+20
 15
-1.000000000000000E+20
 25
-1.000000000000000E+20
 35
-1.000000000000000E+20
146
0.0
 13
0.0
 23
0.0
 33
0.0
 16
1.0
 26
0.0
 36
0.0
 17
0.0
 27
1.0
 37
0.0
 76
     0
330
11
  0
LAYOUT
  5
F
102
{ACAD_REACTORS
330
10
102
}
330
10
100
AcDbPlotSettings
  1

  2
PDF995aaaa.pc3
  4
User137
  6

 40
3.174999952316284
 41
3.174999952316284
 42
3.17498779296875
 43
3.175048828125
 44
899.9000244140624
 45
1244.900024414062
 46
13.01
 47
141.6999999999999
 48
409838.252645189
 49
6533171.596368974
140
410705.7777010331
141
6534126.754727796
142
1.0
143
1.0
 70
 11940
 72
     1
 73
     0
 74
     4
  7
acad_pets.ctb
 75
     0
147
1.0
 76
     0
 77
     2
 78
   300
148
-409838.252645189
149
-6533171.596368974
100
AcDbLayout
  1
Model
 70
     1
 71
     0
 10
0.0
 20
0.0
 11
12.0
 21
9.0
 12
0.0
 22
0.0
 32
0.0
 14
0.0
 24
0.0
 34
0.0
 15
0.0
 25
0.0
 35
0.0
146
0.0
 13
0.0
 23
0.0
 33
0.0
 16
1.0
 26
0.0
 36
0.0
 17
0.0
 27
1.0
 37
0.0
 76
     0
330
2
  0
MLINESTYLE
  5
2C8
102
{ACAD_REACTORS
330
2A
102
}
330
2A
100
AcDbMlineStyle
  2
RAUDTEE
 70
     0
  3

 62
     0
 51
90.0
 52
90.0
 71
     2
 49
1.6
 62
   256
  6
CONTINUOUS
 49
0.0
 62
   256
  6
RAUDTEE
  0
MLINESTYLE
  5
30
330
2A
100
AcDbMlineStyle
  2
STANDARD
 70
     0
  3

 62
   256
 51
90.0
 52
90.0
 71
     2
 49
0.5
 62
   256
  6
BYLAYER
 49
-0.5
 62
   256
  6
BYLAYER
  0
ACDBPLACEHOLDER
  5
8
102
{ACAD_REACTORS
330
9
102
}
330
9
  0
ENDSEC
  0
EOF
