  0
SECTION
  2
HEADER
  9
$ACADVER
  1
AC1015
  9
$ACADMAINTVER
 70
    20
  9
$DWGCODEPAGE
  3
ANSI_1257
  9
$INSBASE
 10
0.0
 20
0.0
 30
0.0
  9
$EXTMIN
 10
466170.95
 20
6529446.449999999
 30
-0.4
  9
$EXTMAX
 10
466915.5222708488
 20
6530111.417293523
 30
4.0
  9
$LIMMIN
 10
0.0
 20
0.0
  9
$LIMMAX
 10
12.0
 20
9.0
  9
$ORTHOMODE
 70
     0
  9
$REGENMODE
 70
     1
  9
$FILLMODE
 70
     1
  9
$QTEXTMODE
 70
     0
  9
$MIRRTEXT
 70
     1
  9
$LTSCALE
 40
1.0
  9
$ATTMODE
 70
     1
  9
$TEXTSIZE
 40
0.2
  9
$TRACEWID
 40
0.05
  9
$TEXTSTYLE
  7
KOORD
  9
$CLAYER
  8
MÄRK
  9
$CELTYPE
  6
CONTINUOUS
  9
$CECOLOR
 62
   256
  9
$CELTSCALE
 40
1.0
  9
$DISPSILH
 70
     0
  9
$DIMSCALE
 40
1.0
  9
$DIMASZ
 40
0.18
  9
$DIMEXO
 40
0.0625
  9
$DIMDLI
 40
0.38
  9
$DIMRND
 40
0.0
  9
$DIMDLE
 40
0.0
  9
$DIMEXE
 40
0.18
  9
$DIMTP
 40
0.0
  9
$DIMTM
 40
0.0
  9
$DIMTXT
 40
0.18
  9
$DIMCEN
 40
0.09
  9
$DIMTSZ
 40
0.0
  9
$DIMTOL
 70
     0
  9
$DIMLIM
 70
     0
  9
$DIMTIH
 70
     1
  9
$DIMTOH
 70
     1
  9
$DIMSE1
 70
     0
  9
$DIMSE2
 70
     0
  9
$DIMTAD
 70
     0
  9
$DIMZIN
 70
     0
  9
$DIMBLK
  1

  9
$DIMASO
 70
     1
  9
$DIMSHO
 70
     1
  9
$DIMPOST
  1

  9
$DIMAPOST
  1

  9
$DIMALT
 70
     0
  9
$DIMALTD
 70
     2
  9
$DIMALTF
 40
25.4
  9
$DIMLFAC
 40
1.0
  9
$DIMTOFL
 70
     0
  9
$DIMTVP
 40
0.0
  9
$DIMTIX
 70
     0
  9
$DIMSOXD
 70
     0
  9
$DIMSAH
 70
     0
  9
$DIMBLK1
  1

  9
$DIMBLK2
  1

  9
$DIMSTYLE
  2
STANDARD
  9
$DIMCLRD
 70
     0
  9
$DIMCLRE
 70
     0
  9
$DIMCLRT
 70
     0
  9
$DIMTFAC
 40
1.0
  9
$DIMGAP
 40
0.09
  9
$DIMJUST
 70
     0
  9
$DIMSD1
 70
     0
  9
$DIMSD2
 70
     0
  9
$DIMTOLJ
 70
     1
  9
$DIMTZIN
 70
     0
  9
$DIMALTZ
 70
     0
  9
$DIMALTTZ
 70
     0
  9
$DIMUPT
 70
     0
  9
$DIMDEC
 70
     4
  9
$DIMTDEC
 70
     4
  9
$DIMALTU
 70
     2
  9
$DIMALTTD
 70
     2
  9
$DIMTXSTY
  7
STANDARD
  9
$DIMAUNIT
 70
     0
  9
$DIMADEC
 70
     0
  9
$DIMALTRND
 40
0.0
  9
$DIMAZIN
 70
     0
  9
$DIMDSEP
 70
    46
  9
$DIMATFIT
 70
     3
  9
$DIMFRAC
 70
     0
  9
$DIMLDRBLK
  1

  9
$DIMLUNIT
 70
     2
  9
$DIMLWD
 70
    -2
  9
$DIMLWE
 70
    -2
  9
$DIMTMOVE
 70
     0
  9
$LUNITS
 70
     2
  9
$LUPREC
 70
     4
  9
$SKETCHINC
 40
0.1
  9
$FILLETRAD
 40
0.0
  9
$AUNITS
 70
     0
  9
$AUPREC
 70
     0
  9
$MENU
  1
.
  9
$ELEVATION
 40
0.0
  9
$PELEVATION
 40
0.0
  9
$THICKNESS
 40
0.0
  9
$LIMCHECK
 70
     0
  9
$CHAMFERA
 40
0.0
  9
$CHAMFERB
 40
0.0
  9
$CHAMFERC
 40
0.0
  9
$CHAMFERD
 40
0.0
  9
$SKPOLY
 70
     0
  9
$TDCREATE
 40
2444972.334532280
  9
$TDUCREATE
 40
2444972.251198947
  9
$TDUPDATE
 40
2455602.823405197
  9
$TDUUPDATE
 40
2455602.740071864
  9
$TDINDWG
 40
1.1443848727
  9
$TDUSRTIMER
 40
1.1443846875
  9
$USRTIMER
 70
     1
  9
$ANGBASE
 50
0.0
  9
$ANGDIR
 70
     0
  9
$PDMODE
 70
     0
  9
$PDSIZE
 40
0.0
  9
$PLINEWID
 40
0.0
  9
$SPLFRAME
 70
     0
  9
$SPLINETYPE
 70
     6
  9
$SPLINESEGS
 70
     8
  9
$HANDSEED
  5
406
  9
$SURFTAB1
 70
     6
  9
$SURFTAB2
 70
     6
  9
$SURFTYPE
 70
     6
  9
$SURFU
 70
     6
  9
$SURFV
 70
     6
  9
$UCSBASE
  2

  9
$UCSNAME
  2

  9
$UCSORG
 10
0.0
 20
0.0
 30
0.0
  9
$UCSXDIR
 10
1.0
 20
0.0
 30
0.0
  9
$UCSYDIR
 10
0.0
 20
1.0
 30
0.0
  9
$UCSORTHOREF
  2

  9
$UCSORTHOVIEW
 70
     0
  9
$UCSORGTOP
 10
0.0
 20
0.0
 30
0.0
  9
$UCSORGBOTTOM
 10
0.0
 20
0.0
 30
0.0
  9
$UCSORGLEFT
 10
0.0
 20
0.0
 30
0.0
  9
$UCSORGRIGHT
 10
0.0
 20
0.0
 30
0.0
  9
$UCSORGFRONT
 10
0.0
 20
0.0
 30
0.0
  9
$UCSORGBACK
 10
0.0
 20
0.0
 30
0.0
  9
$PUCSBASE
  2

  9
$PUCSNAME
  2

  9
$PUCSORG
 10
0.0
 20
0.0
 30
0.0
  9
$PUCSXDIR
 10
1.0
 20
0.0
 30
0.0
  9
$PUCSYDIR
 10
0.0
 20
1.0
 30
0.0
  9
$PUCSORTHOREF
  2

  9
$PUCSORTHOVIEW
 70
     0
  9
$PUCSORGTOP
 10
0.0
 20
0.0
 30
0.0
  9
$PUCSORGBOTTOM
 10
0.0
 20
0.0
 30
0.0
  9
$PUCSORGLEFT
 10
0.0
 20
0.0
 30
0.0
  9
$PUCSORGRIGHT
 10
0.0
 20
0.0
 30
0.0
  9
$PUCSORGFRONT
 10
0.0
 20
0.0
 30
0.0
  9
$PUCSORGBACK
 10
0.0
 20
0.0
 30
0.0
  9
$USERI1
 70
     1
  9
$USERI2
 70
     1
  9
$USERI3
 70
     0
  9
$USERI4
 70
     0
  9
$USERI5
 70
     0
  9
$USERR1
 40
1.0
  9
$USERR2
 40
0.0
  9
$USERR3
 40
0.0
  9
$USERR4
 40
0.0
  9
$USERR5
 40
0.0
  9
$WORLDVIEW
 70
     1
  9
$SHADEDGE
 70
     3
  9
$SHADEDIF
 70
    70
  9
$TILEMODE
 70
     1
  9
$MAXACTVP
 70
    48
  9
$PINSBASE
 10
0.0
 20
0.0
 30
0.0
  9
$PLIMCHECK
 70
     0
  9
$PEXTMIN
 10
1.000000000000000E+20
 20
1.000000000000000E+20
 30
1.000000000000000E+20
  9
$PEXTMAX
 10
-1.000000000000000E+20
 20
-1.000000000000000E+20
 30
-1.000000000000000E+20
  9
$PLIMMIN
 10
0.0
 20
0.0
  9
$PLIMMAX
 10
12.0
 20
9.0
  9
$UNITMODE
 70
     0
  9
$VISRETAIN
 70
     1
  9
$PLINEGEN
 70
     0
  9
$PSLTSCALE
 70
     1
  9
$TREEDEPTH
 70
  3020
  9
$CMLSTYLE
  2
STANDARD
  9
$CMLJUST
 70
     0
  9
$CMLSCALE
 40
1.0
  9
$PROXYGRAPHICS
 70
     1
  9
$MEASUREMENT
 70
     0
  9
$CELWEIGHT
370
    -1
  9
$ENDCAPS
280
     0
  9
$JOINSTYLE
280
     0
  9
$LWDISPLAY
290
     0
  9
$INSUNITS
 70
     0
  9
$HYPERLINKBASE
  1

  9
$STYLESHEET
  1

  9
$XEDIT
290
     1
  9
$CEPSNTYPE
380
     0
  9
$PSTYLEMODE
290
     1
  9
$FINGERPRINTGUID
  2
{36BBE681-D199-40AB-85C6-32B4B5D38111}
  9
$VERSIONGUID
  2
{878ED3DE-5C83-4950-9DF3-140C444F3FDE}
  9
$EXTNAMES
290
     1
  9
$PSVPSCALE
 40
0.0
  9
$OLESTARTUP
290
     0
  0
ENDSEC
  0
SECTION
  2
CLASSES
  0
CLASS
  1
ACDBDICTIONARYWDFLT
  2
AcDbDictionaryWithDefault
  3
ObjectDBX Classes
 90
        0
280
     0
281
     0
  0
CLASS
  1
ACDBPLACEHOLDER
  2
AcDbPlaceHolder
  3
ObjectDBX Classes
 90
        0
280
     0
281
     0
  0
CLASS
  1
LAYOUT
  2
AcDbLayout
  3
ObjectDBX Classes
 90
        0
280
     0
281
     0
  0
CLASS
  1
DICTIONARYVAR
  2
AcDbDictionaryVar
  3
ObjectDBX Classes
 90
        0
280
     0
281
     0
  0
CLASS
  1
SORTENTSTABLE
  2
AcDbSortentsTable
  3
ObjectDBX Classes
 90
        0
280
     0
281
     0
  0
CLASS
  1
IDBUFFER
  2
AcDbIdBuffer
  3
ObjectDBX Classes
 90
    32768
280
     0
281
     0
  0
CLASS
  1
RASTERVARIABLES
  2
AcDbRasterVariables
  3
ISM
 90
    32768
280
     0
281
     0
  0
CLASS
  1
IMAGEDEF
  2
AcDbRasterImageDef
  3
ISM
 90
    32768
280
     0
281
     0
  0
CLASS
  1
IMAGEDEF_REACTOR
  2
AcDbRasterImageDefReactor
  3
ISM
 90
    32769
280
     0
281
     0
  0
CLASS
  1
IMAGE
  2
AcDbRasterImage
  3
ISM
 90
    32895
280
     0
281
     1
  0
ENDSEC
  0
SECTION
  2
TABLES
  0
TABLE
  2
VPORT
  5
23
330
0
100
AcDbSymbolTable
 70
     7
  0
VPORT
  5
3FE
330
23
100
AcDbSymbolTableRecord
100
AcDbViewportTableRecord
  2
*Active
 70
     0
 10
0.0
 20
0.0
 11
1.0
 21
1.0
 12
408408.9503495756
 22
6533613.56033777
 13
0.0
 23
0.0
 14
1.0
 24
1.0
 15
0.0
 25
0.0
 16
0.0
 26
0.0
 36
1.0
 17
0.0
 27
0.0
 37
0.0
 40
7079.023140362934
 41
2.092209856915739
 42
50.0
 43
0.0
 44
0.0
 50
0.0
 51
0.4944750653364577
 71
     0
 72
   100
 73
     1
 74
     1
 75
     0
 76
     0
 77
     0
 78
     0
281
     0
 65
     1
110
0.0
120
0.0
130
0.0
111
1.0
121
0.0
131
0.0
112
0.0
122
1.0
132
0.0
 79
     0
146
0.0
  0
ENDTAB
  0
TABLE
  2
LTYPE
  5
1E
330
0
100
AcDbSymbolTable
 70
     4
  0
LTYPE
  5
1F
330
1E
100
AcDbSymbolTableRecord
100
AcDbLinetypeTableRecord
  2
BYBLOCK
 70
     0
  3

 72
    65
 73
     0
 40
0.0
  0
LTYPE
  5
20
330
1E
100
AcDbSymbolTableRecord
100
AcDbLinetypeTableRecord
  2
BYLAYER
 70
     0
  3

 72
    65
 73
     0
 40
0.0
  0
LTYPE
  5
C
330
1E
100
AcDbSymbolTableRecord
100
AcDbLinetypeTableRecord
  2
CONTINUOUS
 70
     0
  3
Solid line
 72
    65
 73
     0
 40
0.0
  0
LTYPE
  5
49
330
1E
100
AcDbSymbolTableRecord
100
AcDbLinetypeTableRecord
  2
ACAD_ISO03W100
 70
     0
  3
ISO dash space __    __    __    __    __    __
 72
    65
 73
     2
 40
30.0
 49
12.0
 74
     0
 49
-18.0
 74
     0
  0
LTYPE
  5
34
330
1E
100
AcDbSymbolTableRecord
100
AcDbLinetypeTableRecord
  2
HIDDEN
 70
     0
  3
Hidden __ __ __ __ __ __ __ __ __ __ __ __ __ _
 72
    65
 73
     2
 40
9.524999999999998
 49
6.349999999999999
 74
     0
 49
-3.174999999999999
 74
     0
  0
LTYPE
  5
6E
330
1E
100
AcDbSymbolTableRecord
100
AcDbLinetypeTableRecord
  2
ACAD_ISO07W100
 70
     0
  3
ISO dot . . . . . . . . . . . . . . . . . . . .
 72
    65
 73
     2
 40
3.0
 49
0.0
 74
     0
 49
-3.0
 74
     0
  0
ENDTAB
  0
TABLE
  2
LAYER
  5
17
102
{ACAD_XDICTIONARY
360
18
102
}
330
0
100
AcDbSymbolTable
 70
     4
  0
LAYER
  5
7
330
17
100
AcDbSymbolTableRecord
100
AcDbLayerTableRecord
  2
0
 70
     0
 62
     7
  6
CONTINUOUS
370
    -3
390
8
1001
RAK
1000
{ACET-LAYISO
1070
     0
1070
     7
1000
CONTINUOUS
1071
       -3
1071
        1
1005
8
1000
ACET-LAYISO}
  0
LAYER
  5
2E
330
17
100
AcDbSymbolTableRecord
100
AcDbLayerTableRecord
  2
MÄRK
 70
     0
 62
     7
  6
CONTINUOUS
370
    -3
390
8
1001
RAK
1000
{ACET-LAYISO
1070
     0
1070
     7
1000
CONTINUOUS
1071
       -3
1071
        1
1005
8
1000
ACET-LAYISO}
  0
LAYER
  5
33
330
17
100
AcDbSymbolTableRecord
100
AcDbLayerTableRecord
  2
VARE
 70
     0
 62
     1
  6
CONTINUOUS
370
    -3
390
8
1001
RAK
1000
{ACET-LAYISO
1070
     0
1070
     1
1000
CONTINUOUS
1071
       -3
1071
        1
1005
8
1000
ACET-LAYISO}
  0
LAYER
  5
88
330
17
100
AcDbSymbolTableRecord
100
AcDbLayerTableRecord
  2
DEFAULT
 70
     0
 62
     7
  6
CONTINUOUS
370
    -3
390
8
  0
ENDTAB
  0
TABLE
  2
STYLE
  5
1B
330
0
100
AcDbSymbolTable
 70
     3
  0
STYLE
  5
1C
330
1B
100
AcDbSymbolTableRecord
100
AcDbTextStyleTableRecord
  2
STANDARD
 70
     0
 40
0.0
 41
1.0
 50
0.0
 71
     0
 42
0.2
  3
txt
  4

  0
STYLE
  5
2F
330
1B
100
AcDbSymbolTableRecord
100
AcDbTextStyleTableRecord
  2
KOORD
 70
     0
 40
0.2
 41
1.0
 50
0.0
 71
     0
 42
0.2
  3
arialbi.ttf
  4

1001
ACAD
1000
Arial
1071
 50331682
  0
STYLE
  5
89
330
1B
100
AcDbSymbolTableRecord
100
AcDbTextStyleTableRecord
  2
Arial
 70
     0
 40
0.0
 41
1.0
 50
0.0
 71
     0
 42
1.8
  3
arial.ttf
  4

1001
ACAD
1000
Arial
1071
       34
  0
ENDTAB
  0
TABLE
  2
VIEW
  5
21
330
0
100
AcDbSymbolTable
 70
     0
  0
ENDTAB
  0
TABLE
  2
UCS
  5
22
330
0
100
AcDbSymbolTable
 70
     0
  0
ENDTAB
  0
TABLE
  2
APPID
  5
25
330
0
100
AcDbSymbolTable
 70
     3
  0
APPID
  5
26
330
25
100
AcDbSymbolTableRecord
100
AcDbRegAppTableRecord
  2
ACAD
 70
     0
  0
APPID
  5
D
330
25
100
AcDbSymbolTableRecord
100
AcDbRegAppTableRecord
  2
RAK
 70
     0
  0
APPID
  5
B
330
25
100
AcDbSymbolTableRecord
100
AcDbRegAppTableRecord
  2
ADE
 70
     0
  0
ENDTAB
  0
TABLE
  2
DIMSTYLE
  5
27
330
0
100
AcDbSymbolTable
 70
     2
100
AcDbDimStyleTable
 71
     0
  0
DIMSTYLE
105
31
330
27
100
AcDbSymbolTableRecord
100
AcDbDimStyleTableRecord
  2
STANDARD
 70
     0
340
1C
  0
DIMSTYLE
105
8A
330
27
100
AcDbSymbolTableRecord
100
AcDbDimStyleTableRecord
  2
ISO-25
 70
     0
 41
2.5
 42
0.625
 43
3.75
 44
1.25
 73
     0
 74
     0
 77
     1
 78
     8
140
2.5
141
2.5
143
0.03937007874016
147
0.625
171
     3
172
     1
271
     2
272
     2
274
     3
278
    44
283
     0
284
     8
340
1C
  0
ENDTAB
  0
TABLE
  2
BLOCK_RECORD
  5
1
330
0
100
AcDbSymbolTable
 70
     6
  0
BLOCK_RECORD
  5
2
102
{ACAD_XDICTIONARY
360
3
102
}
330
1
100
AcDbSymbolTableRecord
100
AcDbBlockTableRecord
  2
*MODEL_SPACE
340
F
  0
BLOCK_RECORD
  5
11
102
{ACAD_XDICTIONARY
360
12
102
}
330
1
100
AcDbSymbolTableRecord
100
AcDbBlockTableRecord
  2
*PAPER_SPACE
340
16
  0
BLOCK_RECORD
  5
43
330
1
100
AcDbSymbolTableRecord
100
AcDbBlockTableRecord
  2
A$C46351CDF
340
0
  0
BLOCK_RECORD
  5
76
102
{ACAD_XDICTIONARY
360
77
102
}
330
1
100
AcDbSymbolTableRecord
100
AcDbBlockTableRecord
  2
mkivi
340
0
102
{BLKREFS
331
1CE
331
1CB
331
1C8
331
1C5
331
1C2
331
1BF
331
1BC
331
1B9
331
1B6
331
1B3
331
1B0
331
1AD
331
1AA
331
1A7
331
1A4
331
1A1
331
19E
331
19B
331
198
331
195
331
192
331
18F
331
18C
331
189
331
186
331
183
331
180
331
17D
331
17A
331
177
331
174
331
171
331
16E
331
16B
331
168
331
165
331
162
331
15F
331
15C
331
159
331
156
331
153
331
150
331
14D
331
14A
331
147
331
144
331
141
331
13E
331
13B
331
138
331
135
331
132
331
12F
331
12C
331
129
331
126
331
123
331
120
331
11D
331
11A
331
117
331
114
331
111
331
10E
331
10B
331
108
331
105
331
102
331
FF
331
FC
331
F9
331
F6
331
F3
331
F0
331
ED
331
EA
331
E7
331
E4
331
E1
331
DE
331
DB
331
D8
331
D5
331
D2
331
CF
331
CC
331
C9
331
C6
331
C3
331
C0
331
BD
331
BA
331
B7
331
B4
331
B1
331
AE
331
AB
331
A8
331
A5
331
A2
331
9F
331
9C
331
99
331
96
331
93
331
90
331
8D
102
}
  0
BLOCK_RECORD
  5
7E
102
{ACAD_XDICTIONARY
360
7F
102
}
330
1
100
AcDbSymbolTableRecord
100
AcDbBlockTableRecord
  2
mobject
340
0
102
{BLKREFS
331
22B
331
228
331
225
331
222
331
21F
331
21C
331
219
331
216
331
213
331
210
331
20D
331
20A
331
207
331
204
331
201
331
1FE
331
1FB
331
1F8
331
1F5
331
1F2
331
1EF
331
1EC
331
1E9
331
1E6
331
1E3
331
1E0
331
1DD
331
1DA
331
1D7
331
1D4
331
1D1
102
}
  0
ENDTAB
  0
ENDSEC
  0
SECTION
  2
BLOCKS
  0
BLOCK
  5
6
330
2
100
AcDbEntity
  8
0
100
AcDbBlockBegin
  2
*MODEL_SPACE
 70
     0
 10
0.0
 20
0.0
 30
0.0
  3
*MODEL_SPACE
  1

  0
ENDBLK
  5
E
330
2
100
AcDbEntity
  8
0
100
AcDbBlockEnd
  0
BLOCK
  5
14
330
11
100
AcDbEntity
 67
     1
  8
0
100
AcDbBlockBegin
  2
*PAPER_SPACE
 70
     0
 10
0.0
 20
0.0
 30
0.0
  3
*PAPER_SPACE
  1

  0
ENDBLK
  5
15
330
11
100
AcDbEntity
 67
     1
  8
0
100
AcDbBlockEnd
  0
BLOCK
  5
44
330
43
100
AcDbEntity
  8
0
 62
   251
100
AcDbBlockBegin
  2
A$C46351CDF
 70
     0
 10
0.0
 20
0.0
 30
0.0
  3
A$C46351CDF
  1

  0
MTEXT
  5
45
330
43
100
AcDbEntity
  8
VARE
  6
Continuous
100
AcDbMText
 10
0.3941136699868366
 20
3.053640109486877
 30
0.0
 40
2.0
 41
53.03799992965404
 71
     1
 72
     5
  1
\fArial Black|b0|i1|c186|p34;RAHNUD
  7
KOORD
 11
0.9999952570489771
 21
-0.0030799155102217
 31
0.0
 73
     1
 44
1.0
1001
ACAD
1000
MTEXTBEGIN
1070
    73
1070
     1
1070
    44
1040
1.0
1070
    74
1070
     0
1000
MTEXTEND
  0
ENDBLK
  5
46
330
43
100
AcDbEntity
  8
0
 62
   251
100
AcDbBlockEnd
  0
BLOCK
  5
79
330
76
100
AcDbEntity
  8
0
100
AcDbBlockBegin
  2
mkivi
 70
     2
 10
0.0
 20
0.0
 30
0.0
  3
mkivi
  1

  0
LWPOLYLINE
  5
7A
330
76
100
AcDbEntity
  8
0
100
AcDbPolyline
 90
        2
 70
     0
 43
0.4
 10
-1.499999999999488
 20
0.0
 10
1.499999999999488
 20
0.0
  0
LWPOLYLINE
  5
7B
330
76
100
AcDbEntity
  8
0
100
AcDbPolyline
 90
        2
 70
     0
 43
0.4
 10
0.0000000000005116
 20
1.5
 10
0.0000000000005116
 20
-1.500000000001136
  0
ATTDEF
  5
7C
330
76
100
AcDbEntity
  8
0
 48
0.5
100
AcDbText
 10
2.626852392072457
 20
-0.8428101217389176
 30
0.0
 40
2.0
  1

  7
Arial
100
AcDbAttributeDefinition
  3
Kõrgus
  2
KORGUS
 70
     0
  0
ENDBLK
  5
7D
330
76
100
AcDbEntity
  8
0
100
AcDbBlockEnd
  0
BLOCK
  5
81
330
7E
100
AcDbEntity
  8
0
100
AcDbBlockBegin
  2
mobject
 70
     2
 10
0.0
 20
0.0
 30
0.0
  3
mobject
  1

  0
LWPOLYLINE
  5
82
330
7E
100
AcDbEntity
  8
0
100
AcDbPolyline
 90
        2
 70
     0
 43
0.4
 10
-1.499999999999488
 20
0.0
 10
1.499999999999488
 20
0.0
  0
LWPOLYLINE
  5
83
330
7E
100
AcDbEntity
  8
0
100
AcDbPolyline
 90
        2
 70
     0
 43
0.4
 10
0.0000000000005116
 20
1.5
 10
0.0000000000005116
 20
-1.500000000001136
  0
ATTDEF
  5
84
330
7E
100
AcDbEntity
  8
0
 48
0.5
100
AcDbText
 10
2.626852392072457
 20
-0.8428101217389176
 30
0.0
 40
2.0
  1

  7
Arial
100
AcDbAttributeDefinition
  3
Kõrgus
  2
KORGUS
 70
     0
  0
CIRCLE
  5
85
330
7E
100
AcDbEntity
  8
0
  6
ACAD_ISO03W100
 48
0.1
100
AcDbCircle
 10
0.0000000000005116
 20
-0.0000000000005684
 30
0.0
 40
2.245950351885352
  0
TEXT
  5
86
330
7E
100
AcDbEntity
  8
0
 48
0.5
100
AcDbText
 10
-8.651580150386521
 20
-0.7235992023897815
 30
0.0
 40
1.8
  1
Obj.
  7
Arial
100
AcDbText
  0
ENDBLK
  5
87
330
7E
100
AcDbEntity
  8
0
100
AcDbBlockEnd
  0
ENDSEC
  0
SECTION
  2
ENTITIES
  0
LWPOLYLINE
  5
32
330
2
100
AcDbEntity
  8
VARE
  6
HIDDEN
100
AcDbPolyline
 90
        3
 70
     0
 43
0.3
 10
466427.2203612836
 20
6529594.236574929
 10
466427.2203612836
 20
6529594.236574929
 10
466466.7499825259
 20
6529558.95602659
  0
LWPOLYLINE
  5
35
330
2
100
AcDbEntity
  8
VARE
  6
HIDDEN
100
AcDbPolyline
 90
        7
 70
     1
 43
0.3
 10
466374.4448793193
 20
6530111.314884178
 10
466362.91
 20
6530098.97
 10
466356.68
 20
6530098.45
 10
466355.1855555542
 20
6530094.431481479
 10
466356.2823889892
 20
6530091.494187129
 10
466363.5772279522
 20
6530090.837788193
 10
466374.2229624191
 20
6530101.196882551
  0
LWPOLYLINE
  5
3A
330
2
100
AcDbEntity
  8
VARE
  6
HIDDEN
100
AcDbPolyline
 90
        6
 70
     0
 43
0.3
 10
466480.3756595217
 20
6529573.295934027
 10
466452.3397947284
 20
6529598.662999186
 10
466454.0463692065
 20
6529603.325951443
 10
466441.746374529
 20
6529613.707089232
 10
466441.746374529
 20
6529613.707089232
 42
0.7036660778073354
 10
466427.2203612836
 20
6529594.236574929
  0
LWPOLYLINE
  5
3B
330
2
100
AcDbEntity
  8
VARE
  6
HIDDEN
100
AcDbPolyline
 90
        2
 70
     0
 43
0.3
 10
466466.7499825263
 20
6529558.95602659
 42
0.8656508712384695
 10
466480.375659522
 20
6529573.295934027
 42
1.098425086440962
  0
LWPOLYLINE
  5
47
330
2
100
AcDbEntity
  8
VARE
  6
HIDDEN
100
AcDbPolyline
 90
        2
 70
     0
 43
0.3
 10
466774.0003097375
 20
6529464.399677374
 10
466787.9169823796
 20
6529464.025519979
  0
LWPOLYLINE
  5
48
330
2
100
AcDbEntity
  8
VARE
  6
HIDDEN
100
AcDbPolyline
 90
       11
 70
     0
 43
0.3
 10
466422.1308223659
 20
6529454.345819869
 42
0.7928228755844637
 10
466434.4684563962
 20
6529464.21502282
 10
466431.6096546105
 20
6529467.124468524
 10
466293.3485220762
 20
6529607.506881981
 10
466287.597929945
 20
6529608.736689204
 10
466282.239423638
 20
6529606.692134698
 10
466279.7823524566
 20
6529603.402400381
 10
466279.7823524566
 20
6529597.637679028
 10
466418.2058761626
 20
6529458.296777955
 10
466422.1308223654
 20
6529454.345819868
 10
466422.1308223654
 20
6529454.345819868
  0
LWPOLYLINE
  5
4A
330
2
100
AcDbEntity
  8
VARE
  6
HIDDEN
100
AcDbPolyline
 90
        6
 70
     0
 43
0.3
 10
466787.9065503552
 20
6529450.779164143
 10
466713.0815654409
 20
6529450.323607423
 10
466670.5001769836
 20
6529449.591748408
 10
466620.5209770078
 20
6529454.735396617
 10
466616.7330564767
 20
6529455.820250262
 10
466616.7330564767
 20
6529455.820250262
  0
LWPOLYLINE
  5
4B
330
2
100
AcDbEntity
  8
VARE
  6
HIDDEN
100
AcDbPolyline
 90
       12
 70
     1
 43
0.3
 10
466412.8594035211
 20
6529758.290410065
 42
-1.006307848230405
 10
466410.8535086589
 20
6529765.642462421
 10
466446.04
 20
6529786.71
 10
466471.05
 20
6529794.830000001
 10
466492.3182476306
 20
6529794.902457073
 10
466492.3182476306
 20
6529794.902457073
 10
466491.7980592221
 20
6529780.480556341
 10
466465.19
 20
6529777.250000001
 10
466444.57
 20
6529764.689999999
 10
466426.0045358399
 20
6529762.004274316
 10
466412.8594035211
 20
6529758.290410065
 10
466412.8594035211
 20
6529758.290410065
  0
LWPOLYLINE
  5
6D
330
2
100
AcDbEntity
  8
VARE
  6
HIDDEN
100
AcDbPolyline
 90
       34
 70
     1
 43
0.3
 38
-0.4
 10
466327.981654
 20
6529550.366684
 10
466332.063272
 20
6529543.152662999
 10
466338.0433159999
 20
6529536.318326001
 10
466346.3963939999
 20
6529526.541428
 10
466355.6037640001
 20
6529516.859452
 10
466360.8244369999
 20
6529512.967677
 10
466367.563852
 20
6529511.354014
 10
466380.947761
 20
6529500.343139
 10
466388.731311
 20
6529490.376398
 10
466395.945333
 20
6529478.511230999
 10
466403.349197
 20
6529471.866737001
 10
466406.956208
 20
6529469.778466999
 10
466413.885466
 20
6529466.266378
 10
466420.624881
 20
6529461.520311
 10
466423.7572850001
 20
6529461.899996
 10
466426.604925
 20
6529465.032401
 10
466413.790545
 20
6529481.358871
 10
466405.722231
 20
6529489.237342
 10
466394.711355
 20
6529501.197431
 10
466375.727088
 20
6529519.896935
 10
466320.3879470001
 20
6529576.185289
 10
466305.01069
 20
6529590.328568
 10
466291.626781
 20
6529605.32614
 10
466287.0705569999
 20
6529607.604251999
 10
466285.741658
 20
6529607.889016
 10
466282.32449
 20
6529604.471848001
 10
466281.280355
 20
6529601.339444
 10
466281.849883
 20
6529597.827354
 10
466285.931501
 20
6529592.416837999
 10
466291.911545
 20
6529587.101243
 10
466301.213836
 20
6529579.032928999
 10
466312.319633
 20
6529567.927131999
 10
466324.374643
 20
6529555.682279
 10
466327.032441
 20
6529550.556527
  0
LWPOLYLINE
  5
3D4
330
2
100
AcDbEntity
  8
VARE
  6
HIDDEN
100
AcDbPolyline
 90
        7
 70
     0
 43
0.3
 10
466502.1458291277
 20
6529519.960143796
 10
466509.8458596129
 20
6529511.909557607
 10
466534.8717232155
 20
6529495.905047999
 10
466566.0548463438
 20
6529477.662883381
 10
466594.5521834113
 20
6529463.802406389
 10
466616.7330564767
 20
6529455.820250262
 10
466616.7330564767
 20
6529455.820250262
  0
LWPOLYLINE
  5
3D5
330
2
100
AcDbEntity
  8
VARE
  6
HIDDEN
100
AcDbPolyline
 90
       11
 70
     0
 43
0.3
 10
466629.4933253741
 20
6529470.143980594
 10
466611.3100965762
 20
6529474.169143294
 10
466586.0705543088
 20
6529483.398120159
 10
466542.0059965216
 20
6529507.835354653
 10
466513.8594401773
 20
6529526.176564959
 10
466508.8952458325
 20
6529528.920078783
 10
466505.5673839173
 20
6529528.844657079
 10
466503.371129195
 20
6529527.513980033
 10
466501.7954531825
 20
6529525.761376763
 10
466501.358797931
 20
6529523.271352454
 10
466502.1458291277
 20
6529519.960143796
  0
LWPOLYLINE
  5
3D7
330
2
100
AcDbEntity
  8
VARE
  6
HIDDEN
100
AcDbPolyline
 90
        7
 70
     0
 43
0.3
 10
466629.4933253747
 20
6529470.143980594
 10
466682.6254838692
 20
6529465.307419358
 10
466720.416296151
 20
6529464.884959428
 10
466774.0003097375
 20
6529464.399677374
 10
466778.71
 20
6529472.3
 10
466787.05
 20
6529477.700000001
 10
466915.5213705488
 20
6529476.92890087
  0
TEXT
  5
3EE
330
2
100
AcDbEntity
  8
VARE
  6
HIDDEN
100
AcDbText
 10
466382.1448609027
 20
6529506.156267715
 30
0.0
 40
2.0
  1
VARE
 50
314.7987194166254
  7
KOORD
100
AcDbText
  0
TEXT
  5
3EF
330
2
100
AcDbEntity
  8
VARE
  6
HIDDEN
100
AcDbText
 10
466388.5277611046
 20
6529499.728362854
 30
0.0
 40
2.0
  1
 (-0.4)
 50
314.7987194166254
  7
KOORD
100
AcDbText
  0
TEXT
  5
3F0
330
2
100
AcDbEntity
  8
VARE
  6
HIDDEN
100
AcDbText
 10
466307.0379210795
 20
6529580.154632473
 30
0.0
 40
2.0
  1
VARE
 50
314.7987194166254
  7
KOORD
100
AcDbText
  0
TEXT
  5
3F1
330
2
100
AcDbEntity
  8
VARE
  6
HIDDEN
100
AcDbText
 10
466313.4208212814
 20
6529573.726727612
 30
0.0
 40
2.0
  1
 (-0.4)
 50
314.7987194166254
  7
KOORD
100
AcDbText
  0
TEXT
  5
3F2
330
2
100
AcDbEntity
  8
VARE
  6
HIDDEN
100
AcDbText
 10
466450.3328186763
 20
6529578.293539326
 30
4.0
 40
2.0
  1
VARE
 50
315.0
  7
KOORD
100
AcDbText
  0
TEXT
  5
3F4
330
2
100
AcDbEntity
  8
VARE
  6
HIDDEN
100
AcDbText
 10
466746.0418581257
 20
6529456.501902029
 30
0.0
 40
2.0
  1
VARE
 50
359.8235335610168
  7
KOORD
100
AcDbText
  0
TEXT
  5
3F5
330
2
100
AcDbEntity
  8
VARE
  6
HIDDEN
100
AcDbText
 10
466539.0250304453
 20
6529498.179380733
 30
0.0
 40
2.0
  1
VARE
 50
359.8235335610168
  7
KOORD
100
AcDbText
  0
TEXT
  5
3F6
330
2
100
AcDbEntity
  8
VARE
  6
HIDDEN
100
AcDbText
 10
466808.6132826051
 20
6529472.664633557
 30
0.0
 40
2.0
  1
RAHNUD
 50
359.8235335610168
  7
KOORD
100
AcDbText
  0
TEXT
  5
3F7
330
2
100
AcDbEntity
  8
VARE
  6
HIDDEN
100
AcDbText
 10
466355.3066951191
 20
6530095.671946717
 30
0.0
 40
2.0
  1
RAHNUD
 50
359.8235335610168
  7
KOORD
100
AcDbText
  0
TEXT
  5
3F8
330
2
100
AcDbEntity
  8
VARE
  6
HIDDEN
100
AcDbText
 10
466441.0697588255
 20
6529781.673150933
 30
0.0
 40
2.0
  1
VARE
 50
359.8235335610168
  7
KOORD
100
AcDbText
  0
ENDSEC
  0
SECTION
  2
OBJECTS
  0
DICTIONARY
  5
A
330
0
100
AcDbDictionary
281
     1
  3
ACAD_COLOR
350
2D
  3
ACAD_GROUP
350
29
  3
ACAD_LAYOUT
350
10
  3
ACAD_MATERIAL
350
2C
  3
ACAD_MLINESTYLE
350
2A
  3
ACAD_PLOTSETTINGS
350
2B
  3
ACAD_PLOTSTYLENAME
350
9
  3
ACDBHEADERROUNDTRIPXREC
350
3FF
  3
AcDbVariableDictionary
350
3FA
1001
ADE
1000
ADE02C004
1000
[Query]
1000
CaseSensitiveMatch=0
1000
SaveCurrQueryInSession=1
1000
MkSelSetWithQryObj=0
1000
ShowBlockAsInsPt=0
1000
CreateAssociativeHatchObjects=0
1000
ReferenceBoundaryForAreaLocation=1
1000
ShowImageAsBoundary=1
1000
DefaultJoinOperator=2
1000
ColorForAdd=red
1000
ColorForRemove=red
1000
BlockLocnForQuery=1
1000
TextLocnForQuery=1
1000
[Save Back]
1000
RedefineBlockDefinitions=1
1000
RedefineLayerDefinitions=1
1000
RedefineTextStyleDefinitions=1
1000
RemoveUnusedGroups=1
1000
EraseSavedBackObjects=1
1000
RemoveLockAfterSave=1
1000
CreateHistoryFileOfChanges=0
1000
CreateBackupFileOfSourceDwg=1
1000
DontAddObjectsToSaveSet=0
1000
MarkObjectsForEditingWithoutPrompting=0
1000
[Coordinate Transformation]
1000
RestoreLastActiveDwgsOnStartup=1
1000
ActivateDwgsOnAttach=1
1000
AdjustSizesAndScalesForChangesInUnits=1
1000
AdjustRotationsForMapDistortions=1
1000
AdjustSizesAndScalesForMapDistortions=1
1000
AdjustElevations=1
1000
AdjustZeroRotationObjects=1
1000
ReconnectDbOnWSOpen=1
1000
NoOfSQLConditionsInHistory=10
  0
DICTIONARY
  5
18
330
17
100
AcDbDictionary
280
     1
281
     1
  3
ACAD_LAYERFILTERS
360
19
  3
ACAD_LAYERSTATES
360
1A
  0
DICTIONARY
  5
3
330
2
100
AcDbDictionary
280
     1
281
     1
  3
ACAD_LAYOUTSELFREF
360
4
  3
ACAD_SORTENTS
360
6F
  0
DICTIONARY
  5
12
330
11
100
AcDbDictionary
280
     1
281
     1
  3
ACAD_LAYOUTSELFREF
360
13
  0
DICTIONARY
  5
77
330
76
100
AcDbDictionary
280
     1
281
     1
  3
ACAD_SORTENTS
360
78
  0
DICTIONARY
  5
7F
330
7E
100
AcDbDictionary
280
     1
281
     1
  3
ACAD_SORTENTS
360
80
  0
DICTIONARY
  5
2D
102
{ACAD_REACTORS
330
A
102
}
330
A
100
AcDbDictionary
281
     1
  0
DICTIONARY
  5
29
102
{ACAD_REACTORS
330
25
102
}
330
A
100
AcDbDictionary
281
     1
  0
DICTIONARY
  5
10
102
{ACAD_REACTORS
330
A
102
}
330
A
100
AcDbDictionary
281
     1
  3
Layout1
350
16
  3
Model
350
F
  0
DICTIONARY
  5
2C
102
{ACAD_REACTORS
330
A
102
}
330
A
100
AcDbDictionary
281
     1
  0
DICTIONARY
  5
2A
102
{ACAD_REACTORS
330
25
102
}
330
A
100
AcDbDictionary
281
     1
  3
STANDARD
350
30
  0
DICTIONARY
  5
2B
102
{ACAD_REACTORS
330
A
102
}
330
A
100
AcDbDictionary
281
     1
  0
ACDBDICTIONARYWDFLT
  5
9
102
{ACAD_REACTORS
330
A
102
}
330
A
100
AcDbDictionary
281
     1
  3
Normal
350
8
100
AcDbDictionaryWithDefault
340
8
  0
DICTIONARY
  5
3FF
102
{ACAD_REACTORS
330
A
102
}
330
A
100
AcDbDictionary
281
     1
  3
COLORDICT
350
401
  3
MATERIALDICT
350
400
  0
DICTIONARY
  5
3FA
102
{ACAD_REACTORS
330
A
102
}
330
A
100
AcDbDictionary
281
     1
  3
DIMASSOC
350
3FC
  3
HIDETEXT
350
3FB
  3
PROJECTNAME
350
3FD
  0
DICTIONARY
  5
19
102
{ACAD_REACTORS
330
18
102
}
330
18
100
AcDbDictionary
281
     1
  0
DICTIONARY
  5
1A
102
{ACAD_REACTORS
330
18
102
}
330
18
100
AcDbDictionary
281
     1
  0
XRECORD
  5
4
102
{ACAD_REACTORS
330
3
102
}
330
3
100
AcDbXrecord
280
     1
340
2
  0
SORTENTSTABLE
  5
6F
102
{ACAD_REACTORS
330
3
102
}
330
3
100
AcDbSortentsTable
330
2
  0
XRECORD
  5
13
102
{ACAD_REACTORS
330
12
102
}
330
12
100
AcDbXrecord
280
     1
340
11
  0
SORTENTSTABLE
  5
78
102
{ACAD_REACTORS
330
77
102
}
330
77
100
AcDbSortentsTable
330
76
  0
SORTENTSTABLE
  5
80
102
{ACAD_REACTORS
330
7F
102
}
330
7F
100
AcDbSortentsTable
330
7E
  0
LAYOUT
  5
16
102
{ACAD_XDICTIONARY
360
404
102
}
102
{ACAD_REACTORS
330
10
102
}
330
10
100
AcDbPlotSettings
  1

  2
C:\Program Files\ACAD2000\plotters\DWF Classic.pc3
  4

  6

 40
0.0
 41
0.0
 42
0.0
 43
0.0
 44
0.0
 45
0.0
 46
0.0
 47
0.0
 48
0.0
 49
0.0
140
0.0
141
0.0
142
1.0
143
1.0
 70
   688
 72
     0
 73
     0
 74
     5
  7
acad_pets.ctb
 75
    16
147
1.0
148
0.0
149
0.0
100
AcDbLayout
  1
Layout1
 70
     1
 71
     1
 10
0.0
 20
0.0
 11
12.0
 21
9.0
 12
0.0
 22
0.0
 32
0.0
 14
1.000000000000000E+20
 24
1.000000000000000E+20
 34
1.000000000000000E+20
 15
-1.000000000000000E+20
 25
-1.000000000000000E+20
 35
-1.000000000000000E+20
146
0.0
 13
0.0
 23
0.0
 33
0.0
 16
1.0
 26
0.0
 36
0.0
 17
0.0
 27
1.0
 37
0.0
 76
     0
330
11
  0
LAYOUT
  5
F
102
{ACAD_XDICTIONARY
360
402
102
}
102
{ACAD_REACTORS
330
10
102
}
330
10
100
AcDbPlotSettings
  1

  2
PDF995aaaa.pc3
  4
User137
  6

 40
3.174999952316284
 41
3.174999952316284
 42
3.17498779296875
 43
3.175048828125
 44
899.9000244140624
 45
1244.900024414062
 46
13.01
 47
141.6999999999999
 48
409838.252645189
 49
6533171.596368974
140
410705.7777010331
141
6534126.754727796
142
1.0
143
1.0
 70
 11940
 72
     1
 73
     0
 74
     4
  7
acad_pets.ctb
 75
     0
147
1.0
148
-409838.252645189
149
-6533171.596368974
100
AcDbLayout
  1
Model
 70
     1
 71
     0
 10
0.0
 20
0.0
 11
12.0
 21
9.0
 12
0.0
 22
0.0
 32
0.0
 14
0.0
 24
0.0
 34
0.0
 15
0.0
 25
0.0
 35
0.0
146
0.0
 13
0.0
 23
0.0
 33
0.0
 16
1.0
 26
0.0
 36
0.0
 17
0.0
 27
1.0
 37
0.0
 76
     0
330
2
  0
MLINESTYLE
  5
30
330
2A
100
AcDbMlineStyle
  2
STANDARD
 70
     0
  3

 62
   256
 51
90.0
 52
90.0
 71
     2
 49
0.5
 62
   256
  6
BYLAYER
 49
-0.5
 62
   256
  6
BYLAYER
  0
ACDBPLACEHOLDER
  5
8
102
{ACAD_REACTORS
330
9
102
}
330
9
  0
XRECORD
  5
401
102
{ACAD_REACTORS
330
3FF
102
}
330
3FF
100
AcDbXrecord
280
     1
340
2D
  0
XRECORD
  5
400
102
{ACAD_REACTORS
330
3FF
102
}
330
3FF
100
AcDbXrecord
280
     1
340
2C
  0
DICTIONARYVAR
  5
3FC
102
{ACAD_REACTORS
330
3FA
102
}
330
3FA
100
DictionaryVariables
280
     0
  1
1
  0
DICTIONARYVAR
  5
3FB
102
{ACAD_REACTORS
330
3FA
102
}
330
3FA
100
DictionaryVariables
280
     0
  1
1
  0
DICTIONARYVAR
  5
3FD
102
{ACAD_REACTORS
330
3FA
102
}
330
3FA
100
DictionaryVariables
280
     0
  1

  0
DICTIONARY
  5
404
330
16
100
AcDbDictionary
280
     1
281
     1
  3
ACAD_XREC_ROUNDTRIP
360
405
  0
DICTIONARY
  5
402
330
F
100
AcDbDictionary
280
     1
281
     1
  3
ACAD_XREC_ROUNDTRIP
360
403
  0
XRECORD
  5
405
102
{ACAD_REACTORS
330
404
102
}
330
404
100
AcDbXrecord
280
     1
102
SHADEPLOT
 70
     0
102
SHADEPLOTRESLEVEL
 70
     2
102
SHADEPLOTCUSTOMDPI
 70
   300
  0
XRECORD
  5
403
102
{ACAD_REACTORS
330
402
102
}
330
402
100
AcDbXrecord
280
     1
102
SHADEPLOT
 70
     0
102
SHADEPLOTRESLEVEL
 70
     2
102
SHADEPLOTCUSTOMDPI
 70
   300
  0
ENDSEC
  0
EOF
