  0
SECTION
  2
HEADER
  9
$ACADVER
  1
AC1018
  9
$ACADMAINTVER
 70
     0
  9
$DWGCODEPAGE
  3
ANSI_1257
  9
$INSBASE
 10
0.0
 20
0.0
 30
0.0
  9
$EXTMIN
 10
466498.5094535528
 20
6529464.2741
 30
0.0
  9
$EXTMAX
 10
466925.2616537006
 20
6529971.2495
 30
0.0
  9
$LIMMIN
 10
0.0
 20
0.0
  9
$LIMMAX
 10
180.0
 20
277.0
  9
$ORTHOMODE
 70
     0
  9
$REGENMODE
 70
     1
  9
$FILLMODE
 70
     1
  9
$QTEXTMODE
 70
     0
  9
$MIRRTEXT
 70
     1
  9
$LTSCALE
 40
1.0
  9
$ATTMODE
 70
     1
  9
$TEXTSIZE
 40
3.5
  9
$TRACEWID
 40
0.05
  9
$TEXTSTYLE
  7
romans
  9
$CLAYER
  8
0
  9
$CELTYPE
  6
BYLAYER
  9
$CECOLOR
 62
   256
  9
$CELTSCALE
 40
0.2
  9
$DISPSILH
 70
     0
  9
$DIMSCALE
 40
1.0
  9
$DIMASZ
 40
0.18
  9
$DIMEXO
 40
0.0625
  9
$DIMDLI
 40
0.38
  9
$DIMRND
 40
0.0
  9
$DIMDLE
 40
0.0
  9
$DIMEXE
 40
0.18
  9
$DIMTP
 40
0.0
  9
$DIMTM
 40
0.0
  9
$DIMTXT
 40
0.18
  9
$DIMCEN
 40
0.09
  9
$DIMTSZ
 40
0.0
  9
$DIMTOL
 70
     0
  9
$DIMLIM
 70
     0
  9
$DIMTIH
 70
     1
  9
$DIMTOH
 70
     1
  9
$DIMSE1
 70
     0
  9
$DIMSE2
 70
     0
  9
$DIMTAD
 70
     0
  9
$DIMZIN
 70
     0
  9
$DIMBLK
  1

  9
$DIMASO
 70
     1
  9
$DIMSHO
 70
     1
  9
$DIMPOST
  1

  9
$DIMAPOST
  1

  9
$DIMALT
 70
     0
  9
$DIMALTD
 70
     2
  9
$DIMALTF
 40
25.4
  9
$DIMLFAC
 40
1.0
  9
$DIMTOFL
 70
     0
  9
$DIMTVP
 40
0.0
  9
$DIMTIX
 70
     0
  9
$DIMSOXD
 70
     0
  9
$DIMSAH
 70
     0
  9
$DIMBLK1
  1

  9
$DIMBLK2
  1

  9
$DIMSTYLE
  2
STANDARD
  9
$DIMCLRD
 70
     0
  9
$DIMCLRE
 70
     0
  9
$DIMCLRT
 70
     0
  9
$DIMTFAC
 40
1.0
  9
$DIMGAP
 40
0.09
  9
$DIMJUST
 70
     0
  9
$DIMSD1
 70
     0
  9
$DIMSD2
 70
     0
  9
$DIMTOLJ
 70
     1
  9
$DIMTZIN
 70
     0
  9
$DIMALTZ
 70
     0
  9
$DIMALTTZ
 70
     0
  9
$DIMUPT
 70
     0
  9
$DIMDEC
 70
     4
  9
$DIMTDEC
 70
     4
  9
$DIMALTU
 70
     2
  9
$DIMALTTD
 70
     2
  9
$DIMTXSTY
  7
STANDARD
  9
$DIMAUNIT
 70
     0
  9
$DIMADEC
 70
     0
  9
$DIMALTRND
 40
0.0
  9
$DIMAZIN
 70
     0
  9
$DIMDSEP
 70
    46
  9
$DIMATFIT
 70
     3
  9
$DIMFRAC
 70
     0
  9
$DIMLDRBLK
  1

  9
$DIMLUNIT
 70
     2
  9
$DIMLWD
 70
    -2
  9
$DIMLWE
 70
    -2
  9
$DIMTMOVE
 70
     0
  9
$LUNITS
 70
     2
  9
$LUPREC
 70
     4
  9
$SKETCHINC
 40
0.1
  9
$FILLETRAD
 40
0.0
  9
$AUNITS
 70
     0
  9
$AUPREC
 70
     0
  9
$MENU
  1
.
  9
$ELEVATION
 40
0.0
  9
$PELEVATION
 40
0.0
  9
$THICKNESS
 40
0.0
  9
$LIMCHECK
 70
     0
  9
$CHAMFERA
 40
0.0
  9
$CHAMFERB
 40
0.0
  9
$CHAMFERC
 40
0.0
  9
$CHAMFERD
 40
0.0
  9
$SKPOLY
 70
     0
  9
$TDCREATE
 40
2311947.251208611
  9
$TDUCREATE
 40
2311947.167875278
  9
$TDUPDATE
 40
2455604.476440857
  9
$TDUUPDATE
 40
2455604.393107523
  9
$TDINDWG
 40
0.9838530556
  9
$TDUSRTIMER
 40
0.9838528704
  9
$USRTIMER
 70
     1
  9
$ANGBASE
 50
90.0
  9
$ANGDIR
 70
     1
  9
$PDMODE
 70
     0
  9
$PDSIZE
 40
0.0
  9
$PLINEWID
 40
0.0
  9
$SPLFRAME
 70
     0
  9
$SPLINETYPE
 70
     6
  9
$SPLINESEGS
 70
     8
  9
$HANDSEED
  5
142
  9
$SURFTAB1
 70
     6
  9
$SURFTAB2
 70
     6
  9
$SURFTYPE
 70
     6
  9
$SURFU
 70
     6
  9
$SURFV
 70
     6
  9
$UCSBASE
  2

  9
$UCSNAME
  2

  9
$UCSORG
 10
0.0
 20
0.0
 30
0.0
  9
$UCSXDIR
 10
1.0
 20
0.0
 30
0.0
  9
$UCSYDIR
 10
0.0
 20
1.0
 30
0.0
  9
$UCSORTHOREF
  2

  9
$UCSORTHOVIEW
 70
     0
  9
$UCSORGTOP
 10
0.0
 20
0.0
 30
0.0
  9
$UCSORGBOTTOM
 10
0.0
 20
0.0
 30
0.0
  9
$UCSORGLEFT
 10
0.0
 20
0.0
 30
0.0
  9
$UCSORGRIGHT
 10
0.0
 20
0.0
 30
0.0
  9
$UCSORGFRONT
 10
0.0
 20
0.0
 30
0.0
  9
$UCSORGBACK
 10
0.0
 20
0.0
 30
0.0
  9
$PUCSBASE
  2

  9
$PUCSNAME
  2

  9
$PUCSORG
 10
0.0
 20
0.0
 30
0.0
  9
$PUCSXDIR
 10
1.0
 20
0.0
 30
0.0
  9
$PUCSYDIR
 10
0.0
 20
1.0
 30
0.0
  9
$PUCSORTHOREF
  2

  9
$PUCSORTHOVIEW
 70
     0
  9
$PUCSORGTOP
 10
0.0
 20
0.0
 30
0.0
  9
$PUCSORGBOTTOM
 10
0.0
 20
0.0
 30
0.0
  9
$PUCSORGLEFT
 10
0.0
 20
0.0
 30
0.0
  9
$PUCSORGRIGHT
 10
0.0
 20
0.0
 30
0.0
  9
$PUCSORGFRONT
 10
0.0
 20
0.0
 30
0.0
  9
$PUCSORGBACK
 10
0.0
 20
0.0
 30
0.0
  9
$USERI1
 70
     1
  9
$USERI2
 70
     1
  9
$USERI3
 70
     0
  9
$USERI4
 70
     0
  9
$USERI5
 70
     0
  9
$USERR1
 40
1.0
  9
$USERR2
 40
0.0
  9
$USERR3
 40
0.0
  9
$USERR4
 40
0.0
  9
$USERR5
 40
0.0
  9
$WORLDVIEW
 70
     1
  9
$SHADEDGE
 70
     3
  9
$SHADEDIF
 70
    70
  9
$TILEMODE
 70
     1
  9
$MAXACTVP
 70
    48
  9
$PINSBASE
 10
0.0
 20
0.0
 30
0.0
  9
$PLIMCHECK
 70
     0
  9
$PEXTMIN
 10
1.000000000000000E+20
 20
1.000000000000000E+20
 30
1.000000000000000E+20
  9
$PEXTMAX
 10
-1.000000000000000E+20
 20
-1.000000000000000E+20
 30
-1.000000000000000E+20
  9
$PLIMMIN
 10
-23.75708317756653
 20
-15.4837300491333
  9
$PLIMMAX
 10
186.2162444591522
 20
281.4845927047729
  9
$UNITMODE
 70
     0
  9
$VISRETAIN
 70
     1
  9
$PLINEGEN
 70
     0
  9
$PSLTSCALE
 70
     1
  9
$TREEDEPTH
 70
  3020
  9
$CMLSTYLE
  2
STANDARD
  9
$CMLJUST
 70
     0
  9
$CMLSCALE
 40
0.2
  9
$PROXYGRAPHICS
 70
     1
  9
$MEASUREMENT
 70
     0
  9
$CELWEIGHT
370
    -1
  9
$ENDCAPS
280
     0
  9
$JOINSTYLE
280
     0
  9
$LWDISPLAY
290
     0
  9
$INSUNITS
 70
     0
  9
$HYPERLINKBASE
  1

  9
$STYLESHEET
  1

  9
$XEDIT
290
     1
  9
$CEPSNTYPE
380
     0
  9
$PSTYLEMODE
290
     1
  9
$FINGERPRINTGUID
  2
{0416C407-9C8E-40BD-AB8E-0A01C8248684}
  9
$VERSIONGUID
  2
{7F93A6C5-E3A5-47A7-B4C3-980BDEF6C56F}
  9
$EXTNAMES
290
     1
  9
$PSVPSCALE
 40
0.0
  9
$OLESTARTUP
290
     0
  9
$SORTENTS
280
   127
  9
$INDEXCTL
280
     0
  9
$HIDETEXT
280
     1
  9
$XCLIPFRAME
290
     0
  9
$HALOGAP
280
     0
  9
$OBSCOLOR
 70
   257
  9
$OBSLTYPE
280
     0
  9
$INTERSECTIONDISPLAY
280
     0
  9
$INTERSECTIONCOLOR
 70
   257
  9
$DIMASSOC
280
     1
  9
$PROJECTNAME
  1

  0
ENDSEC
  0
SECTION
  2
CLASSES
  0
CLASS
  1
ACDBDICTIONARYWDFLT
  2
AcDbDictionaryWithDefault
  3
ObjectDBX Classes
 90
        0
 91
        1
280
     0
281
     0
  0
CLASS
  1
DICTIONARYVAR
  2
AcDbDictionaryVar
  3
ObjectDBX Classes
 90
        0
 91
        0
280
     0
281
     0
  0
CLASS
  1
IMAGEDEF
  2
AcDbRasterImageDef
  3
ISM
 90
        0
 91
        0
280
     0
281
     0
  0
CLASS
  1
SORTENTSTABLE
  2
AcDbSortentsTable
  3
ObjectDBX Classes
 90
        0
 91
        2
280
     0
281
     0
  0
CLASS
  1
MATERIAL
  2
AcDbMaterial
  3
ObjectDBX Classes
 90
        0
 91
        0
280
     0
281
     0
  0
ENDSEC
  0
SECTION
  2
TABLES
  0
TABLE
  2
VPORT
  5
21
330
0
100
AcDbSymbolTable
 70
     4
  0
VPORT
  5
141
330
21
100
AcDbSymbolTableRecord
100
AcDbViewportTableRecord
  2
*Active
 70
     0
 10
0.0
 20
0.0
 11
1.0
 21
1.0
 12
466759.8684388672
 22
6529781.550605814
 13
0.0
 23
0.0
 14
1.0
 24
1.0
 15
0.0
 25
0.0
 16
0.0
 26
0.0
 36
1.0
 17
0.0
 27
0.0
 37
0.0
 40
364.5839769511087
 41
1.985185185185185
 42
50.0
 43
0.0
 44
0.0
 50
0.0
 51
0.0
 71
     0
 72
   100
 73
     1
 74
     0
 75
     0
 76
     0
 77
     0
 78
     0
281
     0
 65
     1
110
0.0
120
0.0
130
0.0
111
1.0
121
0.0
131
0.0
112
0.0
122
1.0
132
0.0
 79
     0
146
0.0
  0
ENDTAB
  0
TABLE
  2
LTYPE
  5
1C
330
0
100
AcDbSymbolTable
 70
     1
  0
LTYPE
  5
1D
330
1C
100
AcDbSymbolTableRecord
100
AcDbLinetypeTableRecord
  2
BYBLOCK
 70
     0
  3

 72
    65
 73
     0
 40
0.0
  0
LTYPE
  5
1E
330
1C
100
AcDbSymbolTableRecord
100
AcDbLinetypeTableRecord
  2
BYLAYER
 70
     0
  3

 72
    65
 73
     0
 40
0.0
  0
LTYPE
  5
B
330
1C
100
AcDbSymbolTableRecord
100
AcDbLinetypeTableRecord
  2
CONTINUOUS
 70
     0
  3
Solid line
 72
    65
 73
     0
 40
0.0
  0
ENDTAB
  0
TABLE
  2
LAYER
  5
14
102
{ACAD_XDICTIONARY
360
15
102
}
330
0
100
AcDbSymbolTable
 70
     3
  0
LAYER
  5
6
330
14
100
AcDbSymbolTableRecord
100
AcDbLayerTableRecord
  2
0
 70
     0
 62
     7
  6
CONTINUOUS
370
    -3
390
7
1001
RAK
1000
{ACET-LAYISO
1070
     0
1070
     7
1000
CONTINUOUS
1071
       -3
1071
        1
1005
7
1000
ACET-LAYISO}
  0
LAYER
  5
37
330
14
100
AcDbSymbolTableRecord
100
AcDbLayerTableRecord
  2
pollar
 70
     0
 62
     7
  6
CONTINUOUS
370
    -3
390
7
1001
RAK
1000
{ACET-LAYISO
1070
     0
1070
     7
1000
CONTINUOUS
1071
       -3
1071
        1
1005
7
1000
ACET-LAYISO}
  0
LAYER
  5
34
330
14
100
AcDbSymbolTableRecord
100
AcDbLayerTableRecord
  2
pollar_nr
 70
     0
 62
     7
  6
CONTINUOUS
370
    -3
390
7
1001
RAK
1000
{ACET-LAYISO
1070
     0
1070
     7
1000
CONTINUOUS
1071
       -3
1071
        1
1005
7
1000
ACET-LAYISO}
  0
ENDTAB
  0
TABLE
  2
STYLE
  5
18
330
0
100
AcDbSymbolTable
 70
     3
  0
STYLE
  5
19
330
18
100
AcDbSymbolTableRecord
100
AcDbTextStyleTableRecord
  2
STANDARD
 70
     0
 40
0.0
 41
1.0
 50
0.0
 71
     0
 42
0.2
  3
arialbi.ttf
  4

1001
ACAD
1000
Arial
1071
 50331682
  0
STYLE
  5
2B
330
18
100
AcDbSymbolTableRecord
100
AcDbTextStyleTableRecord
  2
romans
 70
     0
 40
0.0
 41
1.0
 50
0.0
 71
     0
 42
3.5
  3
romans.shx
  4

  0
STYLE
  5
35
330
18
100
AcDbSymbolTableRecord
100
AcDbTextStyleTableRecord
  2
Arial
 70
     0
 40
0.0
 41
1.0
 50
0.0
 71
     0
 42
1.8
  3
arial.ttf
  4

1001
ACAD
1000
Arial
1071
       34
  0
ENDTAB
  0
TABLE
  2
VIEW
  5
1F
330
0
100
AcDbSymbolTable
 70
     0
  0
ENDTAB
  0
TABLE
  2
UCS
  5
20
330
0
100
AcDbSymbolTable
 70
     0
  0
ENDTAB
  0
TABLE
  2
APPID
  5
23
330
0
100
AcDbSymbolTable
 70
     3
  0
APPID
  5
1A
330
23
100
AcDbSymbolTableRecord
100
AcDbRegAppTableRecord
  2
ACAD
 70
     0
  0
APPID
  5
A
330
23
100
AcDbSymbolTableRecord
100
AcDbRegAppTableRecord
  2
ADE
 70
     0
  0
APPID
  5
C
330
23
100
AcDbSymbolTableRecord
100
AcDbRegAppTableRecord
  2
RAK
 70
     0
  0
ENDTAB
  0
TABLE
  2
DIMSTYLE
  5
24
330
0
100
AcDbSymbolTable
 70
     1
100
AcDbDimStyleTable
 71
     0
  0
DIMSTYLE
105
2D
330
24
100
AcDbSymbolTableRecord
100
AcDbDimStyleTableRecord
  2
STANDARD
 70
     0
340
19
  0
ENDTAB
  0
TABLE
  2
BLOCK_RECORD
  5
1
330
0
100
AcDbSymbolTable
 70
     1
  0
BLOCK_RECORD
  5
2
102
{ACAD_XDICTIONARY
360
3
102
}
330
1
100
AcDbSymbolTableRecord
100
AcDbBlockTableRecord
  2
*MODEL_SPACE
340
E
  0
BLOCK_RECORD
  5
10
330
1
100
AcDbSymbolTableRecord
100
AcDbBlockTableRecord
  2
*PAPER_SPACE
340
13
  0
BLOCK_RECORD
  5
2F
102
{ACAD_XDICTIONARY
360
30
102
}
330
1
100
AcDbSymbolTableRecord
100
AcDbBlockTableRecord
  2
mpollar
340
0
102
{BLKREFS
331
2E
331
4F
331
52
331
55
331
58
331
5B
331
5E
331
61
331
64
331
67
331
6A
331
6D
331
70
331
73
331
76
331
79
331
7C
331
7F
331
82
331
85
331
88
331
8B
331
8E
331
91
331
94
331
97
331
9A
331
9D
331
A0
331
A3
331
A6
331
A9
331
AC
331
AF
331
B2
331
B5
331
B8
331
BB
331
BE
331
C1
331
C4
331
C7
331
CA
331
CD
331
D0
331
D3
331
D6
331
D9
331
DC
331
DF
331
E2
331
E5
331
E8
331
EB
331
EE
331
F1
331
F4
331
F7
331
FA
331
FD
331
100
331
103
331
106
331
109
331
10C
331
10F
331
112
331
115
331
118
331
11B
331
11E
331
121
331
124
331
127
331
12A
331
12D
331
130
331
133
102
}
  0
ENDTAB
  0
ENDSEC
  0
SECTION
  2
BLOCKS
  0
BLOCK
  5
5
330
2
100
AcDbEntity
  8
0
100
AcDbBlockBegin
  2
*MODEL_SPACE
 70
     0
 10
0.0
 20
0.0
 30
0.0
  3
*MODEL_SPACE
  1

  0
ENDBLK
  5
D
330
2
100
AcDbEntity
  8
0
100
AcDbBlockEnd
  0
BLOCK
  5
11
330
10
100
AcDbEntity
 67
     1
  8
0
100
AcDbBlockBegin
  2
*PAPER_SPACE
 70
     0
 10
0.0
 20
0.0
 30
0.0
  3
*PAPER_SPACE
  1

  0
ENDBLK
  5
12
330
10
100
AcDbEntity
 67
     1
  8
0
100
AcDbBlockEnd
  0
BLOCK
  5
32
330
2F
100
AcDbEntity
  8
0
100
AcDbBlockBegin
  2
mpollar
 70
     2
 10
0.0
 20
0.0
 30
0.0
  3
mpollar
  1

  0
ATTDEF
  5
33
330
2F
100
AcDbEntity
  8
pollar_nr
 48
0.5
100
AcDbText
 10
-2.003384498611495
 20
-3.547687066811988
 30
0.0
 40
2.0
  1

  7
Arial
100
AcDbAttributeDefinition
  3
Pollar
  2
NR
 70
     0
  0
CIRCLE
  5
36
330
2F
100
AcDbEntity
  8
pollar
 48
0.5
100
AcDbCircle
 10
0.0
 20
0.0
 30
0.0
 40
0.4
  0
CIRCLE
  5
38
330
2F
100
AcDbEntity
  8
pollar
 48
0.5
100
AcDbCircle
 10
0.0
 20
0.0
 30
0.0
 40
0.45
  0
CIRCLE
  5
39
330
2F
100
AcDbEntity
  8
pollar
 48
0.5
100
AcDbCircle
 10
0.0
 20
0.0
 30
0.0
 40
0.5
  0
CIRCLE
  5
3A
330
2F
100
AcDbEntity
  8
pollar
 48
0.5
100
AcDbCircle
 10
0.0
 20
0.0
 30
0.0
 40
0.375
  0
CIRCLE
  5
3B
330
2F
100
AcDbEntity
  8
pollar
 48
0.5
100
AcDbCircle
 10
0.0
 20
0.0
 30
0.0
 40
0.3
  0
CIRCLE
  5
3C
330
2F
100
AcDbEntity
  8
pollar
 48
0.5
100
AcDbCircle
 10
0.0
 20
0.0
 30
0.0
 40
0.2
  0
CIRCLE
  5
3D
330
2F
100
AcDbEntity
  8
pollar
 48
0.5
100
AcDbCircle
 10
0.0
 20
0.0
 30
0.0
 40
0.25
  0
CIRCLE
  5
3E
330
2F
100
AcDbEntity
  8
pollar
 48
0.5
100
AcDbCircle
 10
0.0
 20
0.0
 30
0.0
 40
0.15
  0
CIRCLE
  5
3F
330
2F
100
AcDbEntity
  8
pollar
 48
0.5
100
AcDbCircle
 10
0.0
 20
0.0
 30
0.0
 40
0.1
  0
CIRCLE
  5
40
330
2F
100
AcDbEntity
  8
pollar
 48
0.5
100
AcDbCircle
 10
0.0
 20
0.0
 30
0.0
 40
0.05
  0
CIRCLE
  5
41
330
2F
100
AcDbEntity
  8
pollar
 48
0.5
100
AcDbCircle
 10
0.0
 20
0.0
 30
0.0
 40
0.35
  0
CIRCLE
  5
42
330
2F
100
AcDbEntity
  8
pollar
 48
0.5
100
AcDbCircle
 10
0.0
 20
0.0
 30
0.0
 40
0.425
  0
CIRCLE
  5
43
330
2F
100
AcDbEntity
  8
pollar
 48
0.5
100
AcDbCircle
 10
0.0
 20
0.0
 30
0.0
 40
0.45
  0
CIRCLE
  5
44
330
2F
100
AcDbEntity
  8
pollar
 48
0.5
100
AcDbCircle
 10
0.0
 20
0.0
 30
0.0
 40
0.325
  0
CIRCLE
  5
45
330
2F
100
AcDbEntity
  8
pollar
 48
0.5
100
AcDbCircle
 10
0.0
 20
0.0
 30
0.0
 40
0.275
  0
CIRCLE
  5
46
330
2F
100
AcDbEntity
  8
pollar
 48
0.5
100
AcDbCircle
 10
0.0
 20
0.0
 30
0.0
 40
0.175
  0
CIRCLE
  5
47
330
2F
100
AcDbEntity
  8
pollar
 48
0.5
100
AcDbCircle
 10
0.0
 20
0.0
 30
0.0
 40
0.225
  0
CIRCLE
  5
48
330
2F
100
AcDbEntity
  8
pollar
 48
0.5
100
AcDbCircle
 10
0.0
 20
0.0
 30
0.0
 40
0.125
  0
CIRCLE
  5
49
330
2F
100
AcDbEntity
  8
pollar
 48
0.5
100
AcDbCircle
 10
0.0
 20
0.0
 30
0.0
 40
0.075
  0
CIRCLE
  5
4A
330
2F
100
AcDbEntity
  8
pollar
 48
0.5
100
AcDbCircle
 10
0.0
 20
0.0
 30
0.0
 40
0.025
  0
CIRCLE
  5
4B
330
2F
100
AcDbEntity
  8
pollar
 48
0.5
100
AcDbCircle
 10
0.0
 20
0.0
 30
0.0
 40
0.475
  0
ENDBLK
  5
4C
330
2F
100
AcDbEntity
  8
0
100
AcDbBlockEnd
  0
ENDSEC
  0
SECTION
  2
ENTITIES
  0
INSERT
  5
2E
330
2
100
AcDbEntity
  8
0
100
AcDbBlockReference
 66
     1
  2
mpollar
 10
466923.381
 20
6529488.243099999
 30
0.0
  0
ATTRIB
  5
4D
330
2E
100
AcDbEntity
  8
pollar_nr
 48
0.5
100
AcDbText
 10
466921.3776155014
 20
6529484.695412933
 30
0.0
 40
2.0
  1
1/1
  7
Arial
100
AcDbAttribute
  2
NR
 70
     0
  0
SEQEND
  5
4E
330
2E
100
AcDbEntity
  8
0
  0
INSERT
  5
4F
330
2
100
AcDbEntity
  8
0
100
AcDbBlockReference
 66
     1
  2
mpollar
 10
466914.747
 20
6529516.967100001
 30
0.0
  0
ATTRIB
  5
50
330
4F
100
AcDbEntity
  8
pollar_nr
 48
0.5
100
AcDbText
 10
466912.7436155014
 20
6529513.419412933
 30
0.0
 40
2.0
  1
1/2
  7
Arial
100
AcDbAttribute
  2
NR
 70
     0
  0
SEQEND
  5
51
330
4F
100
AcDbEntity
  8
0
  0
INSERT
  5
52
330
2
100
AcDbEntity
  8
0
100
AcDbBlockReference
 66
     1
  2
mpollar
 10
466913.051
 20
6529526.9721
 30
0.0
  0
ATTRIB
  5
53
330
52
100
AcDbEntity
  8
pollar_nr
 48
0.5
100
AcDbText
 10
466911.0476155014
 20
6529523.424412933
 30
0.0
 40
2.0
  1
1/3
  7
Arial
100
AcDbAttribute
  2
NR
 70
     0
  0
SEQEND
  5
54
330
52
100
AcDbEntity
  8
0
  0
INSERT
  5
55
330
2
100
AcDbEntity
  8
0
100
AcDbBlockReference
 66
     1
  2
mpollar
 10
466906.206
 20
6529566.6541
 30
0.0
  0
ATTRIB
  5
56
330
55
100
AcDbEntity
  8
pollar_nr
 48
0.5
100
AcDbText
 10
466904.2026155014
 20
6529563.106412934
 30
0.0
 40
2.0
  1
1/4
  7
Arial
100
AcDbAttribute
  2
NR
 70
     0
  0
SEQEND
  5
57
330
55
100
AcDbEntity
  8
0
  0
INSERT
  5
58
330
2
100
AcDbEntity
  8
0
100
AcDbBlockReference
 66
     1
  2
mpollar
 10
466904.419
 20
6529576.648099999
 30
0.0
  0
ATTRIB
  5
59
330
58
100
AcDbEntity
  8
pollar_nr
 48
0.5
100
AcDbText
 10
466902.4156155014
 20
6529573.100412933
 30
0.0
 40
2.0
  1
1/5
  7
Arial
100
AcDbAttribute
  2
NR
 70
     0
  0
SEQEND
  5
5A
330
58
100
AcDbEntity
  8
0
  0
INSERT
  5
5B
330
2
100
AcDbEntity
  8
0
100
AcDbBlockReference
 66
     1
  2
mpollar
 10
466900.311
 20
6529600.5371
 30
0.0
  0
ATTRIB
  5
5C
330
5B
100
AcDbEntity
  8
pollar_nr
 48
0.5
100
AcDbText
 10
466898.3076155014
 20
6529596.989412933
 30
0.0
 40
2.0
  1
1/7
  7
Arial
100
AcDbAttribute
  2
NR
 70
     0
  0
SEQEND
  5
5D
330
5B
100
AcDbEntity
  8
0
  0
INSERT
  5
5E
330
2
100
AcDbEntity
  8
0
100
AcDbBlockReference
 66
     1
  2
mpollar
 10
466897.619
 20
6529614.4741
 30
0.0
  0
ATTRIB
  5
5F
330
5E
100
AcDbEntity
  8
pollar_nr
 48
0.5
100
AcDbText
 10
466895.6156155014
 20
6529610.926412933
 30
0.0
 40
2.0
  1
1/8
  7
Arial
100
AcDbAttribute
  2
NR
 70
     0
  0
SEQEND
  5
60
330
5E
100
AcDbEntity
  8
0
  0
INSERT
  5
61
330
2
100
AcDbEntity
  8
0
100
AcDbBlockReference
 66
     1
  2
mpollar
 10
466893.609
 20
6529619.472100001
 30
0.0
  0
ATTRIB
  5
62
330
61
100
AcDbEntity
  8
pollar_nr
 48
0.5
100
AcDbText
 10
466891.6056155015
 20
6529615.924412933
 30
0.0
 40
2.0
  1
1/9
  7
Arial
100
AcDbAttribute
  2
NR
 70
     0
  0
SEQEND
  5
63
330
61
100
AcDbEntity
  8
0
  0
INSERT
  5
64
330
2
100
AcDbEntity
  8
0
100
AcDbBlockReference
 66
     1
  2
mpollar
 10
466890.198
 20
6529643.126099999
 30
0.0
  0
ATTRIB
  5
65
330
64
100
AcDbEntity
  8
pollar_nr
 48
0.5
100
AcDbText
 10
466888.1946155013
 20
6529644.045224613
 30
0.0
 40
2.0
  1
2/1
  7
Arial
100
AcDbAttribute
  2
NR
 70
     0
  0
SEQEND
  5
66
330
64
100
AcDbEntity
  8
0
  0
INSERT
  5
67
330
2
100
AcDbEntity
  8
0
100
AcDbBlockReference
 66
     1
  2
mpollar
 10
466871.018
 20
6529641.0431
 30
0.0
  0
ATTRIB
  5
68
330
67
100
AcDbEntity
  8
pollar_nr
 48
0.5
100
AcDbText
 10
466869.0146155014
 20
6529641.962224614
 30
0.0
 40
2.0
  1
2/2
  7
Arial
100
AcDbAttribute
  2
NR
 70
     0
  0
SEQEND
  5
69
330
67
100
AcDbEntity
  8
0
  0
INSERT
  5
6A
330
2
100
AcDbEntity
  8
0
100
AcDbBlockReference
 66
     1
  2
mpollar
 10
466854.7880000001
 20
6529641.1241
 30
0.0
  0
ATTRIB
  5
6B
330
6A
100
AcDbEntity
  8
pollar_nr
 48
0.5
100
AcDbText
 10
466852.7846155014
 20
6529642.043224613
 30
0.0
 40
2.0
  1
2/3
  7
Arial
100
AcDbAttribute
  2
NR
 70
     0
  0
SEQEND
  5
6C
330
6A
100
AcDbEntity
  8
0
  0
INSERT
  5
6D
330
2
100
AcDbEntity
  8
0
100
AcDbBlockReference
 66
     1
  2
mpollar
 10
466841.003
 20
6529641.1241
 30
0.0
  0
ATTRIB
  5
6E
330
6D
100
AcDbEntity
  8
pollar_nr
 48
0.5
100
AcDbText
 10
466838.9996155014
 20
6529642.043224613
 30
0.0
 40
2.0
  1
2/4
  7
Arial
100
AcDbAttribute
  2
NR
 70
     0
  0
SEQEND
  5
6F
330
6D
100
AcDbEntity
  8
0
  0
INSERT
  5
70
330
2
100
AcDbEntity
  8
0
100
AcDbBlockReference
 66
     1
  2
mpollar
 10
466821.746
 20
6529641.1641
 30
0.0
  0
ATTRIB
  5
71
330
70
100
AcDbEntity
  8
pollar_nr
 48
0.5
100
AcDbText
 10
466819.7426155014
 20
6529642.083224613
 30
0.0
 40
2.0
  1
2/5
  7
Arial
100
AcDbAttribute
  2
NR
 70
     0
  0
SEQEND
  5
72
330
70
100
AcDbEntity
  8
0
  0
INSERT
  5
73
330
2
100
AcDbEntity
  8
0
100
AcDbBlockReference
 66
     1
  2
mpollar
 10
466802.6339999999
 20
6529641.284100001
 30
0.0
  0
ATTRIB
  5
74
330
73
100
AcDbEntity
  8
pollar_nr
 48
0.5
100
AcDbText
 10
466800.6306155014
 20
6529642.203224613
 30
0.0
 40
2.0
  1
2/6
  7
Arial
100
AcDbAttribute
  2
NR
 70
     0
  0
SEQEND
  5
75
330
73
100
AcDbEntity
  8
0
  0
INSERT
  5
76
330
2
100
AcDbEntity
  8
0
100
AcDbBlockReference
 66
     1
  2
mpollar
 10
466783.521
 20
6529641.259100001
 30
0.0
  0
ATTRIB
  5
77
330
76
100
AcDbEntity
  8
pollar_nr
 48
0.5
100
AcDbText
 10
466781.5176155015
 20
6529642.178224613
 30
0.0
 40
2.0
  1
2/7
  7
Arial
100
AcDbAttribute
  2
NR
 70
     0
  0
SEQEND
  5
78
330
76
100
AcDbEntity
  8
0
  0
INSERT
  5
79
330
2
100
AcDbEntity
  8
0
100
AcDbBlockReference
 66
     1
  2
mpollar
 10
466848.252
 20
6529649.3911
 30
0.0
  0
ATTRIB
  5
7A
330
79
100
AcDbEntity
  8
pollar_nr
 48
0.5
100
AcDbText
 10
466846.2486155013
 20
6529645.843412932
 30
0.0
 40
2.0
  1
3/2
  7
Arial
100
AcDbAttribute
  2
NR
 70
     0
  0
SEQEND
  5
7B
330
79
100
AcDbEntity
  8
0
  0
INSERT
  5
7C
330
2
100
AcDbEntity
  8
0
100
AcDbBlockReference
 66
     1
  2
mpollar
 10
466841.094
 20
6529649.339100001
 30
0.0
  0
ATTRIB
  5
7D
330
7C
100
AcDbEntity
  8
pollar_nr
 48
0.5
100
AcDbText
 10
466839.0906155013
 20
6529645.791412933
 30
0.0
 40
2.0
  1
3/3
  7
Arial
100
AcDbAttribute
  2
NR
 70
     0
  0
SEQEND
  5
7E
330
7C
100
AcDbEntity
  8
0
  0
INSERT
  5
7F
330
2
100
AcDbEntity
  8
0
100
AcDbBlockReference
 66
     1
  2
mpollar
 10
466821.7600000001
 20
6529649.339100001
 30
0.0
  0
ATTRIB
  5
80
330
7F
100
AcDbEntity
  8
pollar_nr
 48
0.5
100
AcDbText
 10
466819.7566155014
 20
6529645.791412933
 30
0.0
 40
2.0
  1
3/4
  7
Arial
100
AcDbAttribute
  2
NR
 70
     0
  0
SEQEND
  5
81
330
7F
100
AcDbEntity
  8
0
  0
INSERT
  5
82
330
2
100
AcDbEntity
  8
0
100
AcDbBlockReference
 66
     1
  2
mpollar
 10
466802.529
 20
6529649.317099999
 30
0.0
  0
ATTRIB
  5
83
330
82
100
AcDbEntity
  8
pollar_nr
 48
0.5
100
AcDbText
 10
466800.5256155014
 20
6529645.769412933
 30
0.0
 40
2.0
  1
3/5
  7
Arial
100
AcDbAttribute
  2
NR
 70
     0
  0
SEQEND
  5
84
330
82
100
AcDbEntity
  8
0
  0
INSERT
  5
85
330
2
100
AcDbEntity
  8
0
100
AcDbBlockReference
 66
     1
  2
mpollar
 10
466783.343
 20
6529649.2971
 30
0.0
  0
ATTRIB
  5
86
330
85
100
AcDbEntity
  8
pollar_nr
 48
0.5
100
AcDbText
 10
466781.3396155014
 20
6529645.749412933
 30
0.0
 40
2.0
  1
3/6
  7
Arial
100
AcDbAttribute
  2
NR
 70
     0
  0
SEQEND
  5
87
330
85
100
AcDbEntity
  8
0
  0
INSERT
  5
88
330
2
100
AcDbEntity
  8
0
100
AcDbBlockReference
 66
     1
  2
mpollar
 10
466849.3879999999
 20
6529664.213100001
 30
0.0
  0
ATTRIB
  5
89
330
88
100
AcDbEntity
  8
pollar_nr
 48
0.5
100
AcDbText
 10
466847.3846155014
 20
6529660.665412933
 30
0.0
 40
2.0
  1
3/1
  7
Arial
100
AcDbAttribute
  2
NR
 70
     0
  0
SEQEND
  5
8A
330
88
100
AcDbEntity
  8
0
  0
INSERT
  5
8B
330
2
100
AcDbEntity
  8
0
100
AcDbBlockReference
 66
     1
  2
mpollar
 10
466871.2074
 20
6529670.1001
 30
0.0
  0
ATTRIB
  5
8C
330
8B
100
AcDbEntity
  8
pollar_nr
 48
0.5
100
AcDbText
 10
466869.2040155014
 20
6529666.552412934
 30
0.0
 40
2.0
  1
4/2
  7
Arial
100
AcDbAttribute
  2
NR
 70
     0
  0
SEQEND
  5
8D
330
8B
100
AcDbEntity
  8
0
  0
INSERT
  5
8E
330
2
100
AcDbEntity
  8
0
100
AcDbBlockReference
 66
     1
  2
mpollar
 10
466864.1984999999
 20
6529683.3788
 30
0.0
  0
ATTRIB
  5
8F
330
8E
100
AcDbEntity
  8
pollar_nr
 48
0.5
100
AcDbText
 10
466862.1951155014
 20
6529679.831112933
 30
0.0
 40
2.0
  1
4/3
  7
Arial
100
AcDbAttribute
  2
NR
 70
     0
  0
SEQEND
  5
90
330
8E
100
AcDbEntity
  8
0
  0
INSERT
  5
91
330
2
100
AcDbEntity
  8
0
100
AcDbBlockReference
 66
     1
  2
mpollar
 10
466857.2311
 20
6529696.619800001
 30
0.0
  0
ATTRIB
  5
92
330
91
100
AcDbEntity
  8
pollar_nr
 48
0.5
100
AcDbText
 10
466855.2277155014
 20
6529693.072112934
 30
0.0
 40
2.0
  1
4/4
  7
Arial
100
AcDbAttribute
  2
NR
 70
     0
  0
SEQEND
  5
93
330
91
100
AcDbEntity
  8
0
  0
INSERT
  5
94
330
2
100
AcDbEntity
  8
0
100
AcDbBlockReference
 66
     1
  2
mpollar
 10
466850.2648
 20
6529709.8959
 30
0.0
  0
ATTRIB
  5
95
330
94
100
AcDbEntity
  8
pollar_nr
 48
0.5
100
AcDbText
 10
466848.2614155014
 20
6529706.348212934
 30
0.0
 40
2.0
  1
4/5
  7
Arial
100
AcDbAttribute
  2
NR
 70
     0
  0
SEQEND
  5
96
330
94
100
AcDbEntity
  8
0
  0
INSERT
  5
97
330
2
100
AcDbEntity
  8
0
100
AcDbBlockReference
 66
     1
  2
mpollar
 10
466843.2461
 20
6529723.1761
 30
0.0
  0
ATTRIB
  5
98
330
97
100
AcDbEntity
  8
pollar_nr
 48
0.5
100
AcDbText
 10
466841.2427155014
 20
6529719.628412934
 30
0.0
 40
2.0
  1
4/6
  7
Arial
100
AcDbAttribute
  2
NR
 70
     0
  0
SEQEND
  5
99
330
97
100
AcDbEntity
  8
0
  0
INSERT
  5
9A
330
2
100
AcDbEntity
  8
0
100
AcDbBlockReference
 66
     1
  2
mpollar
 10
466836.2911
 20
6529736.3971
 30
0.0
  0
ATTRIB
  5
9B
330
9A
100
AcDbEntity
  8
pollar_nr
 48
0.5
100
AcDbText
 10
466834.2877155014
 20
6529732.849412932
 30
0.0
 40
2.0
  1
4/7
  7
Arial
100
AcDbAttribute
  2
NR
 70
     0
  0
SEQEND
  5
9C
330
9A
100
AcDbEntity
  8
0
  0
INSERT
  5
9D
330
2
100
AcDbEntity
  8
0
100
AcDbBlockReference
 66
     1
  2
mpollar
 10
466829.2595999999
 20
6529749.7266
 30
0.0
  0
ATTRIB
  5
9E
330
9D
100
AcDbEntity
  8
pollar_nr
 48
0.5
100
AcDbText
 10
466827.2562155014
 20
6529746.178912932
 30
0.0
 40
2.0
  1
4/8
  7
Arial
100
AcDbAttribute
  2
NR
 70
     0
  0
SEQEND
  5
9F
330
9D
100
AcDbEntity
  8
0
  0
INSERT
  5
A0
330
2
100
AcDbEntity
  8
0
100
AcDbBlockReference
 66
     1
  2
mpollar
 10
466822.2615
 20
6529762.999799999
 30
0.0
  0
ATTRIB
  5
A1
330
A0
100
AcDbEntity
  8
pollar_nr
 48
0.5
100
AcDbText
 10
466820.2581155014
 20
6529759.452112934
 30
0.0
 40
2.0
  1
4/9
  7
Arial
100
AcDbAttribute
  2
NR
 70
     0
  0
SEQEND
  5
A2
330
A0
100
AcDbEntity
  8
0
  0
INSERT
  5
A3
330
2
100
AcDbEntity
  8
0
100
AcDbBlockReference
 66
     1
  2
mpollar
 10
466815.534
 20
6529775.8516
 30
0.0
  0
ATTRIB
  5
A4
330
A3
100
AcDbEntity
  8
pollar_nr
 48
0.5
100
AcDbText
 10
466813.5306155014
 20
6529772.303912933
 30
0.0
 40
2.0
  1
4/10
  7
Arial
100
AcDbAttribute
  2
NR
 70
     0
  0
SEQEND
  5
A5
330
A3
100
AcDbEntity
  8
0
  0
INSERT
  5
A6
330
2
100
AcDbEntity
  8
0
100
AcDbBlockReference
 66
     1
  2
mpollar
 10
466808.5381
 20
6529789.1339
 30
0.0
  0
ATTRIB
  5
A7
330
A6
100
AcDbEntity
  8
pollar_nr
 48
0.5
100
AcDbText
 10
466806.5347155014
 20
6529785.586212933
 30
0.0
 40
2.0
  1
4/11
  7
Arial
100
AcDbAttribute
  2
NR
 70
     0
  0
SEQEND
  5
A8
330
A6
100
AcDbEntity
  8
0
  0
INSERT
  5
A9
330
2
100
AcDbEntity
  8
0
100
AcDbBlockReference
 66
     1
  2
mpollar
 10
466801.4667
 20
6529802.4666
 30
0.0
  0
ATTRIB
  5
AA
330
A9
100
AcDbEntity
  8
pollar_nr
 48
0.5
100
AcDbText
 10
466799.4633155013
 20
6529798.918912933
 30
0.0
 40
2.0
  1
4/12
  7
Arial
100
AcDbAttribute
  2
NR
 70
     0
  0
SEQEND
  5
AB
330
A9
100
AcDbEntity
  8
0
  0
INSERT
  5
AC
330
2
100
AcDbEntity
  8
0
100
AcDbBlockReference
 66
     1
  2
mpollar
 10
466502.45
 20
6529793.606100001
 30
0.0
  0
ATTRIB
  5
AD
330
AC
100
AcDbEntity
  8
pollar_nr
 48
0.5
100
AcDbText
 10
466498.5094535528
 20
6529790.058412934
 30
0.0
 40
2.0
  1
8/1
  7
Arial
100
AcDbAttribute
  2
NR
 70
     0
  0
SEQEND
  5
AE
330
AC
100
AcDbEntity
  8
0
  0
INSERT
  5
AF
330
2
100
AcDbEntity
  8
0
100
AcDbBlockReference
 66
     1
  2
mpollar
 10
466503.03
 20
6529814.544099999
 30
0.0
  0
ATTRIB
  5
B0
330
AF
100
AcDbEntity
  8
pollar_nr
 48
0.5
100
AcDbText
 10
466499.0894535528
 20
6529810.996412933
 30
0.0
 40
2.0
  1
8/2
  7
Arial
100
AcDbAttribute
  2
NR
 70
     0
  0
SEQEND
  5
B1
330
AF
100
AcDbEntity
  8
0
  0
INSERT
  5
B2
330
2
100
AcDbEntity
  8
0
100
AcDbBlockReference
 66
     1
  2
mpollar
 10
466503.566
 20
6529835.6131
 30
0.0
  0
ATTRIB
  5
B3
330
B2
100
AcDbEntity
  8
pollar_nr
 48
0.5
100
AcDbText
 10
466499.6254535529
 20
6529832.065412933
 30
0.0
 40
2.0
  1
8/3
  7
Arial
100
AcDbAttribute
  2
NR
 70
     0
  0
SEQEND
  5
B4
330
B2
100
AcDbEntity
  8
0
  0
INSERT
  5
B5
330
2
100
AcDbEntity
  8
0
100
AcDbBlockReference
 66
     1
  2
mpollar
 10
466504.163
 20
6529856.914099999
 30
0.0
  0
ATTRIB
  5
B6
330
B5
100
AcDbEntity
  8
pollar_nr
 48
0.5
100
AcDbText
 10
466500.2224535529
 20
6529853.366412933
 30
0.0
 40
2.0
  1
8/4
  7
Arial
100
AcDbAttribute
  2
NR
 70
     0
  0
SEQEND
  5
B7
330
B5
100
AcDbEntity
  8
0
  0
INSERT
  5
B8
330
2
100
AcDbEntity
  8
0
100
AcDbBlockReference
 66
     1
  2
mpollar
 10
466504.705
 20
6529877.7551
 30
0.0
  0
ATTRIB
  5
B9
330
B8
100
AcDbEntity
  8
pollar_nr
 48
0.5
100
AcDbText
 10
466500.7644535529
 20
6529874.207412933
 30
0.0
 40
2.0
  1
8/5
  7
Arial
100
AcDbAttribute
  2
NR
 70
     0
  0
SEQEND
  5
BA
330
B8
100
AcDbEntity
  8
0
  0
INSERT
  5
BB
330
2
100
AcDbEntity
  8
0
100
AcDbBlockReference
 66
     1
  2
mpollar
 10
466505.2789999999
 20
6529899.152599999
 30
0.0
  0
ATTRIB
  5
BC
330
BB
100
AcDbEntity
  8
pollar_nr
 48
0.5
100
AcDbText
 10
466501.3384535528
 20
6529895.604912933
 30
0.0
 40
2.0
  1
8/6
  7
Arial
100
AcDbAttribute
  2
NR
 70
     0
  0
SEQEND
  5
BD
330
BB
100
AcDbEntity
  8
0
  0
INSERT
  5
BE
330
2
100
AcDbEntity
  8
0
100
AcDbBlockReference
 66
     1
  2
mpollar
 10
466505.853
 20
6529920.550099999
 30
0.0
  0
ATTRIB
  5
BF
330
BE
100
AcDbEntity
  8
pollar_nr
 48
0.5
100
AcDbText
 10
466501.9124535528
 20
6529917.002412933
 30
0.0
 40
2.0
  1
8/7
  7
Arial
100
AcDbAttribute
  2
NR
 70
     0
  0
SEQEND
  5
C0
330
BE
100
AcDbEntity
  8
0
  0
INSERT
  5
C1
330
2
100
AcDbEntity
  8
0
100
AcDbBlockReference
 66
     1
  2
mpollar
 10
466506.2235
 20
6529940.7485
 30
0.0
  0
ATTRIB
  5
C2
330
C1
100
AcDbEntity
  8
pollar_nr
 48
0.5
100
AcDbText
 10
466502.2829535528
 20
6529937.200812932
 30
0.0
 40
2.0
  1
8/8
  7
Arial
100
AcDbAttribute
  2
NR
 70
     0
  0
SEQEND
  5
C3
330
C1
100
AcDbEntity
  8
0
  0
INSERT
  5
C4
330
2
100
AcDbEntity
  8
0
100
AcDbBlockReference
 66
     1
  2
mpollar
 10
466506.7565
 20
6529955.7285
 30
0.0
  0
ATTRIB
  5
C5
330
C4
100
AcDbEntity
  8
pollar_nr
 48
0.5
100
AcDbText
 10
466502.8159535529
 20
6529952.180812934
 30
0.0
 40
2.0
  1
8/9
  7
Arial
100
AcDbAttribute
  2
NR
 70
     0
  0
SEQEND
  5
C6
330
C4
100
AcDbEntity
  8
0
  0
INSERT
  5
C7
330
2
100
AcDbEntity
  8
0
100
AcDbBlockReference
 66
     1
  2
mpollar
 10
466507.3184999999
 20
6529970.749500001
 30
0.0
  0
ATTRIB
  5
C8
330
C7
100
AcDbEntity
  8
pollar_nr
 48
0.5
100
AcDbText
 10
466503.3779535528
 20
6529967.201812933
 30
0.0
 40
2.0
  1
8/10
  7
Arial
100
AcDbAttribute
  2
NR
 70
     0
  0
SEQEND
  5
C9
330
C7
100
AcDbEntity
  8
0
  0
INSERT
  5
CA
330
2
100
AcDbEntity
  8
0
100
AcDbBlockReference
 66
     1
  2
mpollar
 10
466745.756
 20
6529849.838000001
 30
0.0
  0
ATTRIB
  5
CB
330
CA
100
AcDbEntity
  8
pollar_nr
 48
0.5
100
AcDbText
 10
466743.7526155014
 20
6529846.290312933
 30
0.0
 40
2.0
  1
6/1
  7
Arial
100
AcDbAttribute
  2
NR
 70
     0
  0
SEQEND
  5
CC
330
CA
100
AcDbEntity
  8
0
  0
INSERT
  5
CD
330
2
100
AcDbEntity
  8
0
100
AcDbBlockReference
 66
     1
  2
mpollar
 10
466744.1720000001
 20
6529854.0111
 30
0.0
  0
ATTRIB
  5
CE
330
CD
100
AcDbEntity
  8
pollar_nr
 48
0.5
100
AcDbText
 10
466742.1686155014
 20
6529850.463412933
 30
0.0
 40
2.0
  1
6/2
  7
Arial
100
AcDbAttribute
  2
NR
 70
     0
  0
SEQEND
  5
CF
330
CD
100
AcDbEntity
  8
0
  0
INSERT
  5
D0
330
2
100
AcDbEntity
  8
0
100
AcDbBlockReference
 66
     1
  2
mpollar
 10
466740.225
 20
6529858.363099999
 30
0.0
  0
ATTRIB
  5
D1
330
D0
100
AcDbEntity
  8
pollar_nr
 48
0.5
100
AcDbText
 10
466738.2216155014
 20
6529854.815412933
 30
0.0
 40
2.0
  1
6/3
  7
Arial
100
AcDbAttribute
  2
NR
 70
     0
  0
SEQEND
  5
D2
330
D0
100
AcDbEntity
  8
0
  0
INSERT
  5
D3
330
2
100
AcDbEntity
  8
0
100
AcDbBlockReference
 66
     1
  2
mpollar
 10
466739.342
 20
6529861.322
 30
0.0
  0
ATTRIB
  5
D4
330
D3
100
AcDbEntity
  8
pollar_nr
 48
0.5
100
AcDbText
 10
466737.3386155015
 20
6529857.774312932
 30
0.0
 40
2.0
  1
6/4
  7
Arial
100
AcDbAttribute
  2
NR
 70
     0
  0
SEQEND
  5
D5
330
D3
100
AcDbEntity
  8
0
  0
INSERT
  5
D6
330
2
100
AcDbEntity
  8
0
100
AcDbBlockReference
 66
     1
  2
mpollar
 10
466733.9270000001
 20
6529865.252
 30
0.0
  0
ATTRIB
  5
D7
330
D6
100
AcDbEntity
  8
pollar_nr
 48
0.5
100
AcDbText
 10
466731.9236155014
 20
6529861.704312934
 30
0.0
 40
2.0
  1
6/5
  7
Arial
100
AcDbAttribute
  2
NR
 70
     0
  0
SEQEND
  5
D8
330
D6
100
AcDbEntity
  8
0
  0
INSERT
  5
D9
330
2
100
AcDbEntity
  8
0
100
AcDbBlockReference
 66
     1
  2
mpollar
 10
466733.6996
 20
6529875.1015
 30
0.0
  0
ATTRIB
  5
DA
330
D9
100
AcDbEntity
  8
pollar_nr
 48
0.5
100
AcDbText
 10
466731.6962155014
 20
6529871.553812933
 30
0.0
 40
2.0
  1
6/6
  7
Arial
100
AcDbAttribute
  2
NR
 70
     0
  0
SEQEND
  5
DB
330
D9
100
AcDbEntity
  8
0
  0
INSERT
  5
DC
330
2
100
AcDbEntity
  8
0
100
AcDbBlockReference
 66
     1
  2
mpollar
 10
466725.337
 20
6529874.596099999
 30
0.0
  0
ATTRIB
  5
DD
330
DC
100
AcDbEntity
  8
pollar_nr
 48
0.5
100
AcDbText
 10
466723.3336155014
 20
6529871.048412933
 30
0.0
 40
2.0
  1
6/7
  7
Arial
100
AcDbAttribute
  2
NR
 70
     0
  0
SEQEND
  5
DE
330
DC
100
AcDbEntity
  8
0
  0
INSERT
  5
DF
330
2
100
AcDbEntity
  8
0
100
AcDbBlockReference
 66
     1
  2
mpollar
 10
466721.197
 20
6529881.94
 30
0.0
  0
ATTRIB
  5
E0
330
DF
100
AcDbEntity
  8
pollar_nr
 48
0.5
100
AcDbText
 10
466719.1936155014
 20
6529878.392312934
 30
0.0
 40
2.0
  1
6/8
  7
Arial
100
AcDbAttribute
  2
NR
 70
     0
  0
SEQEND
  5
E1
330
DF
100
AcDbEntity
  8
0
  0
INSERT
  5
E2
330
2
100
AcDbEntity
  8
0
100
AcDbBlockReference
 66
     1
  2
mpollar
 10
466685.48
 20
6529922.459
 30
0.0
  0
ATTRIB
  5
E3
330
E2
100
AcDbEntity
  8
pollar_nr
 48
0.5
100
AcDbText
 10
466683.4766155014
 20
6529918.911312933
 30
0.0
 40
2.0
  1
6/9
  7
Arial
100
AcDbAttribute
  2
NR
 70
     0
  0
SEQEND
  5
E4
330
E2
100
AcDbEntity
  8
0
  0
INSERT
  5
E5
330
2
100
AcDbEntity
  8
0
100
AcDbBlockReference
 66
     1
  2
mpollar
 10
466688.3819
 20
6529925.2572
 30
0.0
  0
ATTRIB
  5
E6
330
E5
100
AcDbEntity
  8
pollar_nr
 48
0.5
100
AcDbText
 10
466686.3785155014
 20
6529921.709512933
 30
0.0
 40
2.0
  1
6/10
  7
Arial
100
AcDbAttribute
  2
NR
 70
     0
  0
SEQEND
  5
E7
330
E5
100
AcDbEntity
  8
0
  0
INSERT
  5
E8
330
2
100
AcDbEntity
  8
0
100
AcDbBlockReference
 66
     1
  2
mpollar
 10
466673.483
 20
6529936.001000001
 30
0.0
  0
ATTRIB
  5
E9
330
E8
100
AcDbEntity
  8
pollar_nr
 48
0.5
100
AcDbText
 10
466671.4796155014
 20
6529932.453312933
 30
0.0
 40
2.0
  1
6/11
  7
Arial
100
AcDbAttribute
  2
NR
 70
     0
  0
SEQEND
  5
EA
330
E8
100
AcDbEntity
  8
0
  0
INSERT
  5
EB
330
2
100
AcDbEntity
  8
0
100
AcDbBlockReference
 66
     1
  2
mpollar
 10
466777.454
 20
6529861.389999999
 30
0.0
  0
ATTRIB
  5
EC
330
EB
100
AcDbEntity
  8
pollar_nr
 48
0.5
100
AcDbText
 10
466775.4506155015
 20
6529857.842312933
 30
0.0
 40
2.0
  1
7/1
  7
Arial
100
AcDbAttribute
  2
NR
 70
     0
  0
SEQEND
  5
ED
330
EB
100
AcDbEntity
  8
0
  0
INSERT
  5
EE
330
2
100
AcDbEntity
  8
0
100
AcDbBlockReference
 66
     1
  2
mpollar
 10
466768.2720000001
 20
6529870.199000001
 30
0.0
  0
ATTRIB
  5
EF
330
EE
100
AcDbEntity
  8
pollar_nr
 48
0.5
100
AcDbText
 10
466766.2686155014
 20
6529866.651312933
 30
0.0
 40
2.0
  1
7/2
  7
Arial
100
AcDbAttribute
  2
NR
 70
     0
  0
SEQEND
  5
F0
330
EE
100
AcDbEntity
  8
0
  0
INSERT
  5
F1
330
2
100
AcDbEntity
  8
0
100
AcDbBlockReference
 66
     1
  2
mpollar
 10
466758.911
 20
6529857.812
 30
0.0
  0
ATTRIB
  5
F2
330
F1
100
AcDbEntity
  8
pollar_nr
 48
0.5
100
AcDbText
 10
466756.9076155014
 20
6529854.264312933
 30
0.0
 40
2.0
  1
7/3
  7
Arial
100
AcDbAttribute
  2
NR
 70
     0
  0
SEQEND
  5
F3
330
F1
100
AcDbEntity
  8
0
  0
INSERT
  5
F4
330
2
100
AcDbEntity
  8
0
100
AcDbBlockReference
 66
     1
  2
mpollar
 10
466757.7050000001
 20
6529860.514100001
 30
0.0
  0
ATTRIB
  5
F5
330
F4
100
AcDbEntity
  8
pollar_nr
 48
0.5
100
AcDbText
 10
466754.3118596735
 20
6529856.626780124
 30
0.0
 40
2.0
  1
7/4
  7
Arial
100
AcDbAttribute
  2
NR
 70
     0
  0
SEQEND
  5
F6
330
F4
100
AcDbEntity
  8
0
  0
INSERT
  5
F7
330
2
100
AcDbEntity
  8
0
100
AcDbBlockReference
 66
     1
  2
mpollar
 10
466753.5599999999
 20
6529862.4451
 30
0.0
  0
ATTRIB
  5
F8
330
F7
100
AcDbEntity
  8
pollar_nr
 48
0.5
100
AcDbText
 10
466751.5566155014
 20
6529858.897412934
 30
0.0
 40
2.0
  1
7/5
  7
Arial
100
AcDbAttribute
  2
NR
 70
     0
  0
SEQEND
  5
F9
330
F7
100
AcDbEntity
  8
0
  0
INSERT
  5
FA
330
2
100
AcDbEntity
  8
0
100
AcDbBlockReference
 66
     1
  2
mpollar
 10
466749.6139999999
 20
6529866.7581
 30
0.0
  0
ATTRIB
  5
FB
330
FA
100
AcDbEntity
  8
pollar_nr
 48
0.5
100
AcDbText
 10
466747.6106155014
 20
6529863.210412933
 30
0.0
 40
2.0
  1
7/6
  7
Arial
100
AcDbAttribute
  2
NR
 70
     0
  0
SEQEND
  5
FC
330
FA
100
AcDbEntity
  8
0
  0
INSERT
  5
FD
330
2
100
AcDbEntity
  8
0
100
AcDbBlockReference
 66
     1
  2
mpollar
 10
466743.449
 20
6529873.6681
 30
0.0
  0
ATTRIB
  5
FE
330
FD
100
AcDbEntity
  8
pollar_nr
 48
0.5
100
AcDbText
 10
466741.4456155014
 20
6529870.120412933
 30
0.0
 40
2.0
  1
7/7
  7
Arial
100
AcDbAttribute
  2
NR
 70
     0
  0
SEQEND
  5
FF
330
FD
100
AcDbEntity
  8
0
  0
INSERT
  5
100
330
2
100
AcDbEntity
  8
0
100
AcDbBlockReference
 66
     1
  2
mpollar
 10
466734.827
 20
6529883.2251
 30
0.0
  0
ATTRIB
  5
101
330
100
100
AcDbEntity
  8
pollar_nr
 48
0.5
100
AcDbText
 10
466732.8236155014
 20
6529879.677412933
 30
0.0
 40
2.0
  1
7/8
  7
Arial
100
AcDbAttribute
  2
NR
 70
     0
  0
SEQEND
  5
102
330
100
100
AcDbEntity
  8
0
  0
INSERT
  5
103
330
2
100
AcDbEntity
  8
0
100
AcDbBlockReference
 66
     1
  2
mpollar
 10
466728.329
 20
6529890.5161
 30
0.0
  0
ATTRIB
  5
104
330
103
100
AcDbEntity
  8
pollar_nr
 48
0.5
100
AcDbText
 10
466726.3256155014
 20
6529886.968412933
 30
0.0
 40
2.0
  1
7/9
  7
Arial
100
AcDbAttribute
  2
NR
 70
     0
  0
SEQEND
  5
105
330
103
100
AcDbEntity
  8
0
  0
INSERT
  5
106
330
2
100
AcDbEntity
  8
0
100
AcDbBlockReference
 66
     1
  2
mpollar
 10
466719.819
 20
6529900.0021
 30
0.0
  0
ATTRIB
  5
107
330
106
100
AcDbEntity
  8
pollar_nr
 48
0.5
100
AcDbText
 10
466717.8156155014
 20
6529896.454412934
 30
0.0
 40
2.0
  1
7/11
  7
Arial
100
AcDbAttribute
  2
NR
 70
     0
  0
SEQEND
  5
108
330
106
100
AcDbEntity
  8
0
  0
INSERT
  5
109
330
2
100
AcDbEntity
  8
0
100
AcDbBlockReference
 66
     1
  2
mpollar
 10
466711.273
 20
6529909.4191
 30
0.0
  0
ATTRIB
  5
10A
330
109
100
AcDbEntity
  8
pollar_nr
 48
0.5
100
AcDbText
 10
466709.2772912396
 20
6529904.135752937
 30
0.0
 40
2.0
  1
7/12
  7
Arial
100
AcDbAttribute
  2
NR
 70
     0
  0
SEQEND
  5
10B
330
109
100
AcDbEntity
  8
0
  0
INSERT
  5
10C
330
2
100
AcDbEntity
  8
0
100
AcDbBlockReference
 66
     1
  2
mpollar
 10
466710.509
 20
6529910.288099999
 30
0.0
  0
ATTRIB
  5
10D
330
10C
100
AcDbEntity
  8
pollar_nr
 48
0.5
100
AcDbText
 10
466707.5640821882
 20
6529906.329599235
 30
0.0
 40
2.0
  1
7/13
  7
Arial
100
AcDbAttribute
  2
NR
 70
     0
  0
SEQEND
  5
10E
330
10C
100
AcDbEntity
  8
0
  0
INSERT
  5
10F
330
2
100
AcDbEntity
  8
0
100
AcDbBlockReference
 66
     1
  2
mpollar
 10
466691.3039999999
 20
6529927.968
 30
0.0
  0
ATTRIB
  5
110
330
10F
100
AcDbEntity
  8
pollar_nr
 48
0.5
100
AcDbText
 10
466689.3006155014
 20
6529924.420312934
 30
0.0
 40
2.0
  1
7/14
  7
Arial
100
AcDbAttribute
  2
NR
 70
     0
  0
SEQEND
  5
111
330
10F
100
AcDbEntity
  8
0
  0
INSERT
  5
112
330
2
100
AcDbEntity
  8
0
100
AcDbBlockReference
 66
     1
  2
mpollar
 10
466679.1930000001
 20
6529941.261
 30
0.0
  0
ATTRIB
  5
113
330
112
100
AcDbEntity
  8
pollar_nr
 48
0.5
100
AcDbText
 10
466677.1896155014
 20
6529937.713312933
 30
0.0
 40
2.0
  1
7/15
  7
Arial
100
AcDbAttribute
  2
NR
 70
     0
  0
SEQEND
  5
114
330
112
100
AcDbEntity
  8
0
  0
INSERT
  5
115
330
2
100
AcDbEntity
  8
0
100
AcDbBlockReference
 66
     1
  2
mpollar
 10
466892.099
 20
6529616.1871
 30
0.0
  0
ATTRIB
  5
116
330
115
100
AcDbEntity
  8
pollar_nr
 48
0.5
100
AcDbText
 10
466890.0956155014
 20
6529612.639412932
 30
0.0
 40
2.0
  1

  7
Arial
100
AcDbAttribute
  2
NR
 70
     0
  0
SEQEND
  5
117
330
115
100
AcDbEntity
  8
0
  0
INSERT
  5
118
330
2
100
AcDbEntity
  8
0
100
AcDbBlockReference
 66
     1
  2
mpollar
 10
466895.38
 20
6529598.8441
 30
0.0
  0
ATTRIB
  5
119
330
118
100
AcDbEntity
  8
pollar_nr
 48
0.5
100
AcDbText
 10
466893.3766155014
 20
6529595.296412934
 30
0.0
 40
2.0
  1

  7
Arial
100
AcDbAttribute
  2
NR
 70
     0
  0
SEQEND
  5
11A
330
118
100
AcDbEntity
  8
0
  0
INSERT
  5
11B
330
2
100
AcDbEntity
  8
0
100
AcDbBlockReference
 66
     1
  2
mpollar
 10
466898.105
 20
6529583.9591
 30
0.0
  0
ATTRIB
  5
11C
330
11B
100
AcDbEntity
  8
pollar_nr
 48
0.5
100
AcDbText
 10
466896.1016155014
 20
6529580.411412933
 30
0.0
 40
2.0
  1

  7
Arial
100
AcDbAttribute
  2
NR
 70
     0
  0
SEQEND
  5
11D
330
11B
100
AcDbEntity
  8
0
  0
INSERT
  5
11E
330
2
100
AcDbEntity
  8
0
100
AcDbBlockReference
 66
     1
  2
mpollar
 10
466900.5499999999
 20
6529569.0281
 30
0.0
  0
ATTRIB
  5
11F
330
11E
100
AcDbEntity
  8
pollar_nr
 48
0.5
100
AcDbText
 10
466898.5466155014
 20
6529565.480412933
 30
0.0
 40
2.0
  1

  7
Arial
100
AcDbAttribute
  2
NR
 70
     0
  0
SEQEND
  5
120
330
11E
100
AcDbEntity
  8
0
  0
INSERT
  5
121
330
2
100
AcDbEntity
  8
0
100
AcDbBlockReference
 66
     1
  2
mpollar
 10
466902.809
 20
6529554.099100001
 30
0.0
  0
ATTRIB
  5
122
330
121
100
AcDbEntity
  8
pollar_nr
 48
0.5
100
AcDbText
 10
466900.8056155014
 20
6529550.551412934
 30
0.0
 40
2.0
  1

  7
Arial
100
AcDbAttribute
  2
NR
 70
     0
  0
SEQEND
  5
123
330
121
100
AcDbEntity
  8
0
  0
INSERT
  5
124
330
2
100
AcDbEntity
  8
0
100
AcDbBlockReference
 66
     1
  2
mpollar
 10
466905.645
 20
6529539.2771
 30
0.0
  0
ATTRIB
  5
125
330
124
100
AcDbEntity
  8
pollar_nr
 48
0.5
100
AcDbText
 10
466903.6416155014
 20
6529535.729412933
 30
0.0
 40
2.0
  1

  7
Arial
100
AcDbAttribute
  2
NR
 70
     0
  0
SEQEND
  5
126
330
124
100
AcDbEntity
  8
0
  0
INSERT
  5
127
330
2
100
AcDbEntity
  8
0
100
AcDbBlockReference
 66
     1
  2
mpollar
 10
466908.2040000001
 20
6529524.3621
 30
0.0
  0
ATTRIB
  5
128
330
127
100
AcDbEntity
  8
pollar_nr
 48
0.5
100
AcDbText
 10
466906.2006155015
 20
6529520.814412933
 30
0.0
 40
2.0
  1

  7
Arial
100
AcDbAttribute
  2
NR
 70
     0
  0
SEQEND
  5
129
330
127
100
AcDbEntity
  8
0
  0
INSERT
  5
12A
330
2
100
AcDbEntity
  8
0
100
AcDbBlockReference
 66
     1
  2
mpollar
 10
466910.906
 20
6529509.508100001
 30
0.0
  0
ATTRIB
  5
12B
330
12A
100
AcDbEntity
  8
pollar_nr
 48
0.5
100
AcDbText
 10
466908.9026155014
 20
6529505.960412933
 30
0.0
 40
2.0
  1

  7
Arial
100
AcDbAttribute
  2
NR
 70
     0
  0
SEQEND
  5
12C
330
12A
100
AcDbEntity
  8
0
  0
INSERT
  5
12D
330
2
100
AcDbEntity
  8
0
100
AcDbBlockReference
 66
     1
  2
mpollar
 10
466913.4930000001
 20
6529494.5701
 30
0.0
  0
ATTRIB
  5
12E
330
12D
100
AcDbEntity
  8
pollar_nr
 48
0.5
100
AcDbText
 10
466911.4896155014
 20
6529491.022412933
 30
0.0
 40
2.0
  1

  7
Arial
100
AcDbAttribute
  2
NR
 70
     0
  0
SEQEND
  5
12F
330
12D
100
AcDbEntity
  8
0
  0
INSERT
  5
130
330
2
100
AcDbEntity
  8
0
100
AcDbBlockReference
 66
     1
  2
mpollar
 10
466916.0459999999
 20
6529479.670099999
 30
0.0
  0
ATTRIB
  5
131
330
130
100
AcDbEntity
  8
pollar_nr
 48
0.5
100
AcDbText
 10
466914.0426155014
 20
6529476.122412932
 30
0.0
 40
2.0
  1

  7
Arial
100
AcDbAttribute
  2
NR
 70
     0
  0
SEQEND
  5
132
330
130
100
AcDbEntity
  8
0
  0
INSERT
  5
133
330
2
100
AcDbEntity
  8
0
100
AcDbBlockReference
 66
     1
  2
mpollar
 10
466918.514
 20
6529464.7741
 30
0.0
  0
ATTRIB
  5
134
330
133
100
AcDbEntity
  8
pollar_nr
 48
0.5
100
AcDbText
 10
466916.5106155015
 20
6529461.226412934
 30
0.0
 40
2.0
  1

  7
Arial
100
AcDbAttribute
  2
NR
 70
     0
  0
SEQEND
  5
135
330
133
100
AcDbEntity
  8
0
  0
ENDSEC
  0
SECTION
  2
OBJECTS
  0
DICTIONARY
  5
9
330
0
100
AcDbDictionary
281
     1
  3
ACAD_COLOR
350
2A
  3
ACAD_GROUP
350
26
  3
ACAD_LAYOUT
350
F
  3
ACAD_MATERIAL
350
29
  3
ACAD_MLINESTYLE
350
27
  3
ACAD_PLOTSETTINGS
350
28
  3
ACAD_PLOTSTYLENAME
350
8
1001
ADE
1000
ADE02C004
1000
[Query]
1000
CaseSensitiveMatch=0
1000
SaveCurrQueryInSession=1
1000
MkSelSetWithQryObj=0
1000
ShowBlockAsInsPt=0
1000
CreateAssociativeHatchObjects=0
1000
ReferenceBoundaryForAreaLocation=1
1000
ShowImageAsBoundary=1
1000
DefaultJoinOperator=2
1000
ColorForAdd=red
1000
ColorForRemove=red
1000
BlockLocnForQuery=1
1000
TextLocnForQuery=1
1000
[Save Back]
1000
RedefineBlockDefinitions=1
1000
RedefineLayerDefinitions=1
1000
RedefineTextStyleDefinitions=1
1000
RemoveUnusedGroups=1
1000
EraseSavedBackObjects=1
1000
RemoveLockAfterSave=1
1000
CreateHistoryFileOfChanges=0
1000
CreateBackupFileOfSourceDwg=1
1000
DontAddObjectsToSaveSet=0
1000
MarkObjectsForEditingWithoutPrompting=0
1000
[Coordinate Transformation]
1000
RestoreLastActiveDwgsOnStartup=1
1000
ActivateDwgsOnAttach=1
1000
AdjustSizesAndScalesForChangesInUnits=1
1000
AdjustRotationsForMapDistortions=1
1000
AdjustSizesAndScalesForMapDistortions=1
1000
AdjustElevations=1
1000
AdjustZeroRotationObjects=1
1000
ReconnectDbOnWSOpen=1
1000
NoOfSQLConditionsInHistory=10
  0
DICTIONARY
  5
15
330
14
100
AcDbDictionary
280
     1
281
     1
  3
ACAD_LAYERFILTERS
360
16
  3
ACAD_LAYERSTATES
360
17
  0
DICTIONARY
  5
3
330
2
100
AcDbDictionary
280
     1
281
     1
  3
ACAD_SORTENTS
360
4
  0
DICTIONARY
  5
30
330
2F
100
AcDbDictionary
280
     1
281
     1
  3
ACAD_SORTENTS
360
31
  0
DICTIONARY
  5
2A
102
{ACAD_REACTORS
330
9
102
}
330
9
100
AcDbDictionary
281
     1
  0
DICTIONARY
  5
26
102
{ACAD_REACTORS
330
23
102
}
330
9
100
AcDbDictionary
281
     1
  0
DICTIONARY
  5
F
102
{ACAD_REACTORS
330
9
102
}
330
9
100
AcDbDictionary
281
     1
  3
Layout1
350
13
  3
Model
350
E
  0
DICTIONARY
  5
29
102
{ACAD_REACTORS
330
9
102
}
330
9
100
AcDbDictionary
281
     1
  0
DICTIONARY
  5
27
102
{ACAD_REACTORS
330
23
102
}
330
9
100
AcDbDictionary
281
     1
  3
STANDARD
350
2C
  0
DICTIONARY
  5
28
102
{ACAD_REACTORS
330
9
102
}
330
9
100
AcDbDictionary
281
     1
  0
ACDBDICTIONARYWDFLT
  5
8
102
{ACAD_REACTORS
330
9
102
}
330
9
100
AcDbDictionary
281
     1
  3
Normal
350
7
100
AcDbDictionaryWithDefault
340
7
  0
DICTIONARY
  5
16
102
{ACAD_REACTORS
330
15
102
}
330
15
100
AcDbDictionary
281
     1
  0
DICTIONARY
  5
17
102
{ACAD_REACTORS
330
15
102
}
330
15
100
AcDbDictionary
281
     1
  0
SORTENTSTABLE
  5
4
102
{ACAD_REACTORS
330
3
102
}
330
3
100
AcDbSortentsTable
330
2
  0
SORTENTSTABLE
  5
31
102
{ACAD_REACTORS
330
30
102
}
330
30
100
AcDbSortentsTable
330
2F
  0
LAYOUT
  5
13
102
{ACAD_REACTORS
330
F
102
}
330
F
100
AcDbPlotSettings
  1

  2
Stylus COLOR 1520
  4
A4
  6

 40
3.757083177566528
 41
14.7637300491333
 42
3.757080078125
 43
3.757080078125
 44
209.9733276367187
 45
296.9683227539062
 46
20.0
 47
0.72
 48
0.0
 49
0.0
140
180.0
141
277.0
142
1.0
143
1.0
 70
   672
 72
     1
 73
     0
 74
     4
  7
acad.ctb
 75
     0
147
1.0
 76
     1
 77
     2
 78
   180
148
0.0
149
0.0
100
AcDbLayout
  1
Layout1
 70
     1
 71
     1
 10
-23.75708317756653
 20
-15.4837300491333
 11
186.2162444591522
 21
281.4845927047729
 12
0.0
 22
0.0
 32
0.0
 14
1.000000000000000E+20
 24
1.000000000000000E+20
 34
1.000000000000000E+20
 15
-1.000000000000000E+20
 25
-1.000000000000000E+20
 35
-1.000000000000000E+20
146
0.0
 13
0.0
 23
0.0
 33
0.0
 16
1.0
 26
0.0
 36
0.0
 17
0.0
 27
1.0
 37
0.0
 76
     0
330
10
  0
LAYOUT
  5
E
102
{ACAD_REACTORS
330
F
102
}
330
F
100
AcDbPlotSettings
  1

  2
PDF995
  4
A4
  6

 40
3.174999952316284
 41
3.174999952316284
 42
3.175003051757812
 43
3.17498779296875
 44
209.9027709960938
 45
297.0388793945312
 46
-3.22
 47
-3.16
 48
-6530401.770469323
 49
466091.824120694
140
-6529351.770469323
141
467576.8241206941
142
1.0
143
5.0
 70
 11940
 72
     1
 73
     0
 74
     4
  7
acad_pets.ctb
 75
     0
147
0.2
 76
     0
 77
     2
 78
   150
148
6530401.770469323
149
-466091.824120694
100
AcDbLayout
  1
Model
 70
     1
 71
     0
 10
0.0
 20
0.0
 11
12.0
 21
9.0
 12
0.0
 22
0.0
 32
0.0
 14
0.0
 24
0.0
 34
0.0
 15
0.0
 25
0.0
 35
0.0
146
0.0
 13
0.0
 23
0.0
 33
0.0
 16
1.0
 26
0.0
 36
0.0
 17
0.0
 27
1.0
 37
0.0
 76
     0
330
2
  0
MLINESTYLE
  5
2C
330
27
100
AcDbMlineStyle
  2
STANDARD
 70
     0
  3

 62
   256
 51
90.0
 52
90.0
 71
     2
 49
0.5
 62
   256
  6
BYLAYER
 49
-0.5
 62
   256
  6
BYLAYER
  0
ACDBPLACEHOLDER
  5
7
102
{ACAD_REACTORS
330
8
102
}
330
8
  0
ENDSEC
  0
EOF
