  0
SECTION
  2
HEADER
  9
$ACADVER
  1
AC1018
  9
$ACADMAINTVER
 70
     0
  9
$DWGCODEPAGE
  3
ANSI_1257
  9
$INSBASE
 10
0.0
 20
0.0
 30
0.0
  9
$EXTMIN
 10
466669.3769800084
 20
6529869.306895473
 30
0.0
  9
$EXTMAX
 10
466747.8485041151
 20
6529945.218405093
 30
4.384999999999999
  9
$LIMMIN
 10
0.0
 20
0.0
  9
$LIMMAX
 10
12.0
 20
9.0
  9
$ORTHOMODE
 70
     0
  9
$REGENMODE
 70
     1
  9
$FILLMODE
 70
     1
  9
$QTEXTMODE
 70
     0
  9
$MIRRTEXT
 70
     1
  9
$LTSCALE
 40
1.0
  9
$ATTMODE
 70
     1
  9
$TEXTSIZE
 40
0.2
  9
$TRACEWID
 40
0.05
  9
$TEXTSTYLE
  7
KOORD
  9
$CLAYER
  8
vender
  9
$CELTYPE
  6
CONTINUOUS
  9
$CECOLOR
 62
   256
  9
$CELTSCALE
 40
1.0
  9
$DISPSILH
 70
     0
  9
$DIMSCALE
 40
1.0
  9
$DIMASZ
 40
0.18
  9
$DIMEXO
 40
0.0625
  9
$DIMDLI
 40
0.38
  9
$DIMRND
 40
0.0
  9
$DIMDLE
 40
0.0
  9
$DIMEXE
 40
0.18
  9
$DIMTP
 40
0.0
  9
$DIMTM
 40
0.0
  9
$DIMTXT
 40
0.18
  9
$DIMCEN
 40
0.09
  9
$DIMTSZ
 40
0.0
  9
$DIMTOL
 70
     0
  9
$DIMLIM
 70
     0
  9
$DIMTIH
 70
     1
  9
$DIMTOH
 70
     1
  9
$DIMSE1
 70
     0
  9
$DIMSE2
 70
     0
  9
$DIMTAD
 70
     0
  9
$DIMZIN
 70
     0
  9
$DIMBLK
  1

  9
$DIMASO
 70
     1
  9
$DIMSHO
 70
     1
  9
$DIMPOST
  1

  9
$DIMAPOST
  1

  9
$DIMALT
 70
     0
  9
$DIMALTD
 70
     2
  9
$DIMALTF
 40
25.4
  9
$DIMLFAC
 40
1.0
  9
$DIMTOFL
 70
     0
  9
$DIMTVP
 40
0.0
  9
$DIMTIX
 70
     0
  9
$DIMSOXD
 70
     0
  9
$DIMSAH
 70
     0
  9
$DIMBLK1
  1

  9
$DIMBLK2
  1

  9
$DIMSTYLE
  2
STANDARD
  9
$DIMCLRD
 70
     0
  9
$DIMCLRE
 70
     0
  9
$DIMCLRT
 70
     0
  9
$DIMTFAC
 40
1.0
  9
$DIMGAP
 40
0.09
  9
$DIMJUST
 70
     0
  9
$DIMSD1
 70
     0
  9
$DIMSD2
 70
     0
  9
$DIMTOLJ
 70
     1
  9
$DIMTZIN
 70
     0
  9
$DIMALTZ
 70
     0
  9
$DIMALTTZ
 70
     0
  9
$DIMUPT
 70
     0
  9
$DIMDEC
 70
     4
  9
$DIMTDEC
 70
     4
  9
$DIMALTU
 70
     2
  9
$DIMALTTD
 70
     2
  9
$DIMTXSTY
  7
STANDARD
  9
$DIMAUNIT
 70
     0
  9
$DIMADEC
 70
     0
  9
$DIMALTRND
 40
0.0
  9
$DIMAZIN
 70
     0
  9
$DIMDSEP
 70
    46
  9
$DIMATFIT
 70
     3
  9
$DIMFRAC
 70
     0
  9
$DIMLDRBLK
  1

  9
$DIMLUNIT
 70
     2
  9
$DIMLWD
 70
    -2
  9
$DIMLWE
 70
    -2
  9
$DIMTMOVE
 70
     0
  9
$LUNITS
 70
     2
  9
$LUPREC
 70
     4
  9
$SKETCHINC
 40
0.1
  9
$FILLETRAD
 40
0.0
  9
$AUNITS
 70
     0
  9
$AUPREC
 70
     0
  9
$MENU
  1
.
  9
$ELEVATION
 40
0.0
  9
$PELEVATION
 40
0.0
  9
$THICKNESS
 40
0.0
  9
$LIMCHECK
 70
     0
  9
$CHAMFERA
 40
0.0
  9
$CHAMFERB
 40
0.0
  9
$CHAMFERC
 40
0.0
  9
$CHAMFERD
 40
0.0
  9
$SKPOLY
 70
     0
  9
$TDCREATE
 40
2444972.334532280
  9
$TDUCREATE
 40
2444972.251198947
  9
$TDUPDATE
 40
2455602.824167963
  9
$TDUUPDATE
 40
2455602.740834630
  9
$TDINDWG
 40
1.1111859838
  9
$TDUSRTIMER
 40
1.1111857986
  9
$USRTIMER
 70
     1
  9
$ANGBASE
 50
0.0
  9
$ANGDIR
 70
     0
  9
$PDMODE
 70
     0
  9
$PDSIZE
 40
0.0
  9
$PLINEWID
 40
0.0
  9
$SPLFRAME
 70
     0
  9
$SPLINETYPE
 70
     6
  9
$SPLINESEGS
 70
     8
  9
$HANDSEED
  5
6F
  9
$SURFTAB1
 70
     6
  9
$SURFTAB2
 70
     6
  9
$SURFTYPE
 70
     6
  9
$SURFU
 70
     6
  9
$SURFV
 70
     6
  9
$UCSBASE
  2

  9
$UCSNAME
  2

  9
$UCSORG
 10
0.0
 20
0.0
 30
0.0
  9
$UCSXDIR
 10
1.0
 20
0.0
 30
0.0
  9
$UCSYDIR
 10
0.0
 20
1.0
 30
0.0
  9
$UCSORTHOREF
  2

  9
$UCSORTHOVIEW
 70
     0
  9
$UCSORGTOP
 10
0.0
 20
0.0
 30
0.0
  9
$UCSORGBOTTOM
 10
0.0
 20
0.0
 30
0.0
  9
$UCSORGLEFT
 10
0.0
 20
0.0
 30
0.0
  9
$UCSORGRIGHT
 10
0.0
 20
0.0
 30
0.0
  9
$UCSORGFRONT
 10
0.0
 20
0.0
 30
0.0
  9
$UCSORGBACK
 10
0.0
 20
0.0
 30
0.0
  9
$PUCSBASE
  2

  9
$PUCSNAME
  2

  9
$PUCSORG
 10
0.0
 20
0.0
 30
0.0
  9
$PUCSXDIR
 10
1.0
 20
0.0
 30
0.0
  9
$PUCSYDIR
 10
0.0
 20
1.0
 30
0.0
  9
$PUCSORTHOREF
  2

  9
$PUCSORTHOVIEW
 70
     0
  9
$PUCSORGTOP
 10
0.0
 20
0.0
 30
0.0
  9
$PUCSORGBOTTOM
 10
0.0
 20
0.0
 30
0.0
  9
$PUCSORGLEFT
 10
0.0
 20
0.0
 30
0.0
  9
$PUCSORGRIGHT
 10
0.0
 20
0.0
 30
0.0
  9
$PUCSORGFRONT
 10
0.0
 20
0.0
 30
0.0
  9
$PUCSORGBACK
 10
0.0
 20
0.0
 30
0.0
  9
$USERI1
 70
     1
  9
$USERI2
 70
     1
  9
$USERI3
 70
     0
  9
$USERI4
 70
     0
  9
$USERI5
 70
     0
  9
$USERR1
 40
1.0
  9
$USERR2
 40
0.0
  9
$USERR3
 40
0.0
  9
$USERR4
 40
0.0
  9
$USERR5
 40
0.0
  9
$WORLDVIEW
 70
     1
  9
$SHADEDGE
 70
     3
  9
$SHADEDIF
 70
    70
  9
$TILEMODE
 70
     1
  9
$MAXACTVP
 70
    48
  9
$PINSBASE
 10
0.0
 20
0.0
 30
0.0
  9
$PLIMCHECK
 70
     0
  9
$PEXTMIN
 10
1.000000000000000E+20
 20
1.000000000000000E+20
 30
1.000000000000000E+20
  9
$PEXTMAX
 10
-1.000000000000000E+20
 20
-1.000000000000000E+20
 30
-1.000000000000000E+20
  9
$PLIMMIN
 10
0.0
 20
0.0
  9
$PLIMMAX
 10
12.0
 20
9.0
  9
$UNITMODE
 70
     0
  9
$VISRETAIN
 70
     1
  9
$PLINEGEN
 70
     0
  9
$PSLTSCALE
 70
     1
  9
$TREEDEPTH
 70
  3020
  9
$CMLSTYLE
  2
STANDARD
  9
$CMLJUST
 70
     0
  9
$CMLSCALE
 40
1.0
  9
$PROXYGRAPHICS
 70
     1
  9
$MEASUREMENT
 70
     0
  9
$CELWEIGHT
370
    -1
  9
$ENDCAPS
280
     0
  9
$JOINSTYLE
280
     0
  9
$LWDISPLAY
290
     0
  9
$INSUNITS
 70
     0
  9
$HYPERLINKBASE
  1

  9
$STYLESHEET
  1

  9
$XEDIT
290
     1
  9
$CEPSNTYPE
380
     0
  9
$PSTYLEMODE
290
     1
  9
$FINGERPRINTGUID
  2
{36BBE681-D199-40AB-85C6-32B4B5D38111}
  9
$VERSIONGUID
  2
{E77BA464-9208-4584-A87B-513E7C41F137}
  9
$EXTNAMES
290
     1
  9
$PSVPSCALE
 40
0.0
  9
$OLESTARTUP
290
     0
  9
$SORTENTS
280
   127
  9
$INDEXCTL
280
     0
  9
$HIDETEXT
280
     1
  9
$XCLIPFRAME
290
     0
  9
$HALOGAP
280
     0
  9
$OBSCOLOR
 70
   257
  9
$OBSLTYPE
280
     0
  9
$INTERSECTIONDISPLAY
280
     0
  9
$INTERSECTIONCOLOR
 70
   257
  9
$DIMASSOC
280
     1
  9
$PROJECTNAME
  1

  0
ENDSEC
  0
SECTION
  2
CLASSES
  0
CLASS
  1
ACDBDICTIONARYWDFLT
  2
AcDbDictionaryWithDefault
  3
ObjectDBX Classes
 90
        0
 91
        1
280
     0
281
     0
  0
CLASS
  1
DICTIONARYVAR
  2
AcDbDictionaryVar
  3
ObjectDBX Classes
 90
        0
 91
        0
280
     0
281
     0
  0
CLASS
  1
SORTENTSTABLE
  2
AcDbSortentsTable
  3
ObjectDBX Classes
 90
        0
 91
        1
280
     0
281
     0
  0
CLASS
  1
IDBUFFER
  2
AcDbIdBuffer
  3
ObjectDBX Classes
 90
        0
 91
        0
280
     0
281
     0
  0
CLASS
  1
RASTERVARIABLES
  2
AcDbRasterVariables
  3
ISM
 90
        0
 91
        0
280
     0
281
     0
  0
CLASS
  1
IMAGEDEF
  2
AcDbRasterImageDef
  3
ISM
 90
        0
 91
        0
280
     0
281
     0
  0
CLASS
  1
IMAGEDEF_REACTOR
  2
AcDbRasterImageDefReactor
  3
ISM
 90
        1
 91
        0
280
     0
281
     0
  0
CLASS
  1
IMAGE
  2
AcDbRasterImage
  3
ISM
 90
      127
 91
        0
280
     0
281
     1
  0
ENDSEC
  0
SECTION
  2
TABLES
  0
TABLE
  2
VPORT
  5
23
330
0
100
AcDbSymbolTable
 70
     2
  0
VPORT
  5
6E
330
23
100
AcDbSymbolTableRecord
100
AcDbViewportTableRecord
  2
*Active
 70
     0
 10
0.0
 20
0.0
 11
1.0
 21
1.0
 12
409922.0000445757
 22
6533763.768923458
 13
0.0
 23
0.0
 14
1.0
 24
1.0
 15
0.0
 25
0.0
 16
0.0
 26
0.0
 36
1.0
 17
0.0
 27
0.0
 37
0.0
 40
1114.819752257362
 41
1.985185185185185
 42
50.0
 43
0.0
 44
0.0
 50
0.0
 51
0.4944750653364577
 71
     0
 72
   100
 73
     1
 74
     1
 75
     0
 76
     0
 77
     0
 78
     0
281
     0
 65
     1
110
0.0
120
0.0
130
0.0
111
1.0
121
0.0
131
0.0
112
0.0
122
1.0
132
0.0
 79
     0
146
0.0
  0
ENDTAB
  0
TABLE
  2
LTYPE
  5
1E
330
0
100
AcDbSymbolTable
 70
     1
  0
LTYPE
  5
1F
330
1E
100
AcDbSymbolTableRecord
100
AcDbLinetypeTableRecord
  2
BYBLOCK
 70
     0
  3

 72
    65
 73
     0
 40
0.0
  0
LTYPE
  5
20
330
1E
100
AcDbSymbolTableRecord
100
AcDbLinetypeTableRecord
  2
BYLAYER
 70
     0
  3

 72
    65
 73
     0
 40
0.0
  0
LTYPE
  5
C
330
1E
100
AcDbSymbolTableRecord
100
AcDbLinetypeTableRecord
  2
CONTINUOUS
 70
     0
  3
Solid line
 72
    65
 73
     0
 40
0.0
  0
ENDTAB
  0
TABLE
  2
LAYER
  5
17
102
{ACAD_XDICTIONARY
360
18
102
}
330
0
100
AcDbSymbolTable
 70
     2
  0
LAYER
  5
7
330
17
100
AcDbSymbolTableRecord
100
AcDbLayerTableRecord
  2
0
 70
     0
 62
    -7
  6
CONTINUOUS
370
    -3
390
8
1001
RAK
1000
{ACET-LAYISO
1070
     0
1070
     7
1000
CONTINUOUS
1071
       -3
1071
        1
1005
8
1000
ACET-LAYISO}
  0
LAYER
  5
2E
330
17
100
AcDbSymbolTableRecord
100
AcDbLayerTableRecord
  2
vender
 70
     0
 62
     7
  6
CONTINUOUS
370
    -3
390
8
1001
RAK
1000
{ACET-LAYISO
1070
     0
1070
     7
1000
CONTINUOUS
1071
       -3
1071
        1
1005
8
1000
ACET-LAYISO}
  0
ENDTAB
  0
TABLE
  2
STYLE
  5
1B
330
0
100
AcDbSymbolTable
 70
     2
  0
STYLE
  5
1C
330
1B
100
AcDbSymbolTableRecord
100
AcDbTextStyleTableRecord
  2
STANDARD
 70
     0
 40
0.0
 41
1.0
 50
0.0
 71
     0
 42
0.2
  3
txt
  4

  0
STYLE
  5
2F
330
1B
100
AcDbSymbolTableRecord
100
AcDbTextStyleTableRecord
  2
KOORD
 70
     0
 40
0.2
 41
1.0
 50
0.0
 71
     0
 42
0.2
  3
arialbi.ttf
  4

1001
ACAD
1000
Arial
1071
 50331682
  0
ENDTAB
  0
TABLE
  2
VIEW
  5
21
330
0
100
AcDbSymbolTable
 70
     0
  0
ENDTAB
  0
TABLE
  2
UCS
  5
22
330
0
100
AcDbSymbolTable
 70
     0
  0
ENDTAB
  0
TABLE
  2
APPID
  5
25
330
0
100
AcDbSymbolTable
 70
     4
  0
APPID
  5
26
330
25
100
AcDbSymbolTableRecord
100
AcDbRegAppTableRecord
  2
ACAD
 70
     0
  0
APPID
  5
D
330
25
100
AcDbSymbolTableRecord
100
AcDbRegAppTableRecord
  2
RAK
 70
     0
  0
APPID
  5
B
330
25
100
AcDbSymbolTableRecord
100
AcDbRegAppTableRecord
  2
ADE
 70
     0
  0
APPID
  5
33
330
25
100
AcDbSymbolTableRecord
100
AcDbRegAppTableRecord
  2
MStation
 70
     0
  0
ENDTAB
  0
TABLE
  2
DIMSTYLE
  5
27
330
0
100
AcDbSymbolTable
 70
     1
100
AcDbDimStyleTable
 71
     0
  0
DIMSTYLE
105
31
330
27
100
AcDbSymbolTableRecord
100
AcDbDimStyleTableRecord
  2
STANDARD
 70
     0
340
1C
  0
ENDTAB
  0
TABLE
  2
BLOCK_RECORD
  5
1
330
0
100
AcDbSymbolTable
 70
     0
  0
BLOCK_RECORD
  5
2
102
{ACAD_XDICTIONARY
360
3
102
}
330
1
100
AcDbSymbolTableRecord
100
AcDbBlockTableRecord
  2
*MODEL_SPACE
340
F
  0
BLOCK_RECORD
  5
11
102
{ACAD_XDICTIONARY
360
12
102
}
330
1
100
AcDbSymbolTableRecord
100
AcDbBlockTableRecord
  2
*PAPER_SPACE
340
16
  0
ENDTAB
  0
ENDSEC
  0
SECTION
  2
BLOCKS
  0
BLOCK
  5
6
330
2
100
AcDbEntity
  8
0
100
AcDbBlockBegin
  2
*MODEL_SPACE
 70
     0
 10
0.0
 20
0.0
 30
0.0
  3
*MODEL_SPACE
  1

  0
ENDBLK
  5
E
330
2
100
AcDbEntity
  8
0
100
AcDbBlockEnd
  0
BLOCK
  5
14
330
11
100
AcDbEntity
 67
     1
  8
0
100
AcDbBlockBegin
  2
*PAPER_SPACE
 70
     0
 10
0.0
 20
0.0
 30
0.0
  3
*PAPER_SPACE
  1

  0
ENDBLK
  5
15
330
11
100
AcDbEntity
 67
     1
  8
0
100
AcDbBlockEnd
  0
ENDSEC
  0
SECTION
  2
ENTITIES
  0
LWPOLYLINE
  5
32
330
2
100
AcDbEntity
  8
vender
  6
Continuous
 62
     6
 48
0.5
370
     0
100
AcDbPolyline
 90
        2
 70
   128
 43
0.0
 10
466670.768
 20
6529933.044999999
 10
466670.354
 20
6529933.489
1001
MStation
1000
Lnkg
1002
{
1004
1B10970E70250000004082021B15C80244E3EB26730E000000005306D9B70500000000000000000000000000000000000000000041000000
1002
}
  0
LWPOLYLINE
  5
34
330
2
100
AcDbEntity
  8
vender
  6
Continuous
 62
     6
 48
0.5
370
     0
100
AcDbPolyline
 90
        2
 70
   128
 43
0.0
 10
466681.9859999999
 20
6529943.972
 10
466682.447
 20
6529943.543999999
1001
MStation
1000
Lnkg
1002
{
1004
1B10970E7225000000408202D419C80232E7EB26550E000000001F05D9B70500000000000000000000000000000000000000000041000000
1002
}
  0
LWPOLYLINE
  5
35
330
2
100
AcDbEntity
  8
vender
  6
Continuous
 62
     6
 48
0.5
370
     0
100
AcDbPolyline
 90
        2
 70
   128
 43
0.0
 10
466676.562
 20
6529943.877
 10
466676.9880000001
 20
6529944.251
1001
MStation
1000
Lnkg
1002
{
1004
1B10970E7625000000408202B217C80279E7EB26560E000000006304D9B70500000000000000000000000000000000000000000041000000
1002
}
  0
LINE
  5
36
330
2
100
AcDbEntity
  8
vender
  6
Continuous
 62
     6
370
     0
100
AcDbLine
 10
466670.5287487996
 20
6529938.480724426
 30
3.862
 11
466671.1150241993
 21
6529937.851533625
 31
3.862
  0
LINE
  5
37
330
2
100
AcDbEntity
  8
vender
  6
Continuous
 62
     6
370
     0
100
AcDbLine
 10
466670.9923059979
 20
6529938.912663642
 30
3.87
 11
466671.5785813976
 21
6529938.283472844
 31
3.87
  0
LINE
  5
38
330
2
100
AcDbEntity
  8
vender
  6
Continuous
 62
     6
370
     0
100
AcDbLine
 10
466679.7937107619
 20
6529945.215682111
 30
3.658
 11
466679.7811584427
 21
6529944.355938051
 31
3.658
  0
LINE
  5
39
330
2
100
AcDbEntity
  8
vender
  6
Continuous
 62
     6
370
     0
100
AcDbLine
 10
466679.2105533124
 20
6529945.218405093
 30
3.661999999999999
 11
466679.1980855262
 21
6529944.364450953
 31
3.661999999999999
  0
LINE
  5
3A
330
2
100
AcDbEntity
  8
vender
  6
Continuous
 62
     6
370
     0
100
AcDbLine
 10
466677.1339669382
 20
6529943.225508247
 30
3.668
 11
466676.562
 21
6529943.877
 31
3.668
  0
LINE
  5
3B
330
2
100
AcDbEntity
  8
vender
  6
Continuous
 62
     6
370
     0
100
AcDbLine
 10
466677.5650629459
 20
6529943.593703704
 30
3.669999999999999
 11
466676.9880000001
 21
6529944.251
 31
3.669999999999999
  0
LINE
  5
3C
330
2
100
AcDbEntity
  8
vender
  6
Continuous
 62
     6
370
     0
100
AcDbLine
 10
466681.4418177756
 20
6529943.385859802
 30
3.658
 11
466681.9859999999
 21
6529943.972
 31
3.658
  0
LINE
  5
3D
330
2
100
AcDbEntity
  8
vender
  6
Continuous
 62
     6
370
     0
100
AcDbLine
 10
466681.8772507372
 20
6529942.930321472
 30
3.669
 11
466682.447
 21
6529943.543999999
 31
3.669
  0
LWPOLYLINE
  5
3E
330
2
100
AcDbEntity
  8
vender
  6
Continuous
 62
     6
 48
0.5
370
     0
100
AcDbPolyline
 90
        2
 70
   128
 43
0.0
 10
466693.982
 20
6529930.811000001
 10
466694.379
 20
6529930.364000001
1001
MStation
1000
Lnkg
1002
{
1004
1B10970E7C250000004082027D1EC8020CE2EB264B08000000002705D9B70500000000000000000000000000000000000000000041000000
1002
}
  0
LWPOLYLINE
  5
3F
330
2
100
AcDbEntity
  8
vender
  6
Continuous
 62
     6
 48
0.5
370
     0
100
AcDbPolyline
 90
        2
 70
   128
 43
0.0
 10
466683.129
 20
6529919.396000001
 10
466682.1880000001
 20
6529920.422
1001
MStation
1000
Lnkg
1002
{
1004
1B10970E7E25000000408202BA19C8022ADEEB26DF1000000000A304D9B70500000000000000000000000000000000000000000041000000
1002
}
  0
LINE
  5
40
330
2
100
AcDbEntity
  8
vender
  6
Continuous
 62
     6
370
     0
100
AcDbLine
 10
466693.3415564243
 20
6529930.242194409
 30
2.12
 11
466693.982
 21
6529930.811000001
 31
2.12
  0
LINE
  5
41
330
2
100
AcDbEntity
  8
vender
  6
Continuous
 62
     6
370
     0
100
AcDbLine
 10
466693.7444068949
 20
6529929.800390464
 30
2.123
 11
466694.379
 21
6529930.364000001
 31
2.123
  0
LINE
  5
42
330
2
100
AcDbEntity
  8
vender
  6
Continuous
 62
     6
370
     0
100
AcDbLine
 10
466682.7581671558
 20
6529920.944931086
 30
4.318999999999999
 11
466682.1880000001
 21
6529920.422
 31
4.318999999999999
  0
LINE
  5
43
330
2
100
AcDbEntity
  8
vender
  6
Continuous
 62
     6
370
     0
100
AcDbLine
 10
466683.7054579672
 20
6529919.924700728
 30
4.317999999999999
 11
466683.129
 21
6529919.396000001
 31
4.317999999999999
  0
LINE
  5
44
330
2
100
AcDbEntity
  8
vender
  6
Continuous
 62
     6
370
     0
100
AcDbLine
 10
466700.598818374
 20
6529901.227424893
 30
4.371
 11
466699.846985572
 21
6529900.527568847
 31
4.371
  0
LINE
  5
45
330
2
100
AcDbEntity
  8
vender
  6
Continuous
 62
     6
370
     0
100
AcDbLine
 10
466701.5388908387
 20
6529900.185598484
 30
4.366999999999999
 11
466700.802985572
 21
6529899.500568848
 31
4.366999999999999
  0
LINE
  5
46
330
2
100
AcDbEntity
  8
vender
  6
Continuous
 62
     6
370
     0
100
AcDbLine
 10
466709.8060575834
 20
6529891.02358919
 30
4.354
 11
466709.0401640044
 21
6529890.364496435
 31
4.354
  0
LINE
  5
47
330
2
100
AcDbEntity
  8
vender
  6
Continuous
 62
     6
370
     0
100
AcDbLine
 10
466710.7316793908
 20
6529889.997777585
 30
4.365
 11
466709.9411640044
 21
6529889.317496436
 31
4.365
  0
LINE
  5
48
330
2
100
AcDbEntity
  8
vender
  6
Continuous
 62
     6
370
     0
100
AcDbLine
 10
466718.4842580222
 20
6529881.406055698
 30
4.378
 11
466717.6966646776
 21
6529880.699806453
 31
4.378
  0
LINE
  5
49
330
2
100
AcDbEntity
  8
vender
  6
Continuous
 62
     6
370
     0
100
AcDbLine
 10
466719.4164723246
 20
6529880.372938022
 30
4.384999999999999
 11
466718.6256646776
 21
6529879.663806454
 31
4.384999999999999
  0
LINE
  5
4A
330
2
100
AcDbEntity
  8
vender
  6
Continuous
 62
     6
370
     0
100
AcDbLine
 10
466727.8132574987
 20
6529871.067280331
 30
4.366999999999999
 11
466726.9945767933
 21
6529870.333895472
 31
4.366999999999999
  0
LINE
  5
4B
330
2
100
AcDbEntity
  8
vender
  6
Continuous
 62
     6
370
     0
100
AcDbLine
 10
466728.7369593501
 20
6529870.043596498
 30
4.375
 11
466727.9145767933
 21
6529869.306895473
 31
4.375
  0
LINE
  5
4C
330
2
100
AcDbEntity
  8
vender
  6
Continuous
 62
     6
370
     0
100
AcDbLine
 10
466670.768
 20
6529933.044999999
 30
3.689999999999999
 11
466671.4179752804
 21
6529933.611739139
 31
3.689999999999999
  0
LINE
  5
4D
330
2
100
AcDbEntity
  8
vender
  6
Continuous
 62
     6
370
     0
100
AcDbLine
 10
466670.354
 20
6529933.489
 30
3.698999999999999
 11
466671.0192335767
 21
6529934.06904345
 31
3.698999999999999
  0
LWPOLYLINE
  5
4E
330
2
100
AcDbEntity
  8
vender
  6
Continuous
 62
     6
 48
0.5
370
     0
100
AcDbPolyline
 90
        2
 70
   128
 43
0.0
 10
466669.3802698928
 20
6529936.323961083
 10
466669.3769800084
 20
6529935.679763418
1001
MStation
1000
Lnkg
1002
{
1004
1B10970E8625000000408202B914C8021FE4EB261F0F000000009F06D9B70500000000000000000000000000000000000000000041000000
1002
}
  0
LINE
  5
4F
330
2
100
AcDbEntity
  8
vender
  6
Continuous
 62
     6
370
     0
100
AcDbLine
 10
466669.3769800084
 20
6529935.679763418
 30
3.871
 11
466670.2369680528
 21
6529935.675372093
 31
3.871
  0
LINE
  5
50
330
2
100
AcDbEntity
  8
vender
  6
Continuous
 62
     6
370
     0
100
AcDbLine
 10
466670.2402574959
 20
6529936.319569759
 30
3.869
 11
466669.3802698928
 21
6529936.323961083
 31
3.869000000000001
  0
LWPOLYLINE
  5
51
330
2
100
AcDbEntity
  8
vender
  6
Continuous
 62
     6
 48
0.5
370
     0
100
AcDbPolyline
 90
        2
 70
   128
 43
0.0
 10
466670.5287487996
 20
6529938.480724426
 10
466670.9923059979
 20
6529938.912663642
1001
MStation
1000
Lnkg
1002
{
1004
1B10970E88250000004082025B15C80263E5EB261E0F00000000CB04D9B70500000000000000000000000000000000000000000041000000
1002
}
  0
LWPOLYLINE
  5
52
330
2
100
AcDbEntity
  8
vender
  6
Continuous
 62
     6
 48
0.5
370
     0
100
AcDbPolyline
 90
        2
 70
   128
 43
0.0
 10
466679.2105533124
 20
6529945.218405093
 10
466679.7937107619
 20
6529945.215682111
1001
MStation
1000
Lnkg
1002
{
1004
1B10970E5325000000408202E719C802A4E6EB26750900000000D304D9B7050000000000000000000000000000000000000000000F000000
1002
}
  0
LWPOLYLINE
  5
53
330
2
100
AcDbEntity
  8
vender
  6
Continuous
 62
     6
 48
0.5
370
     0
100
AcDbPolyline
 90
        2
 70
   128
 43
0.0
 10
466699.846985572
 20
6529900.527568847
 10
466700.802985572
 20
6529899.500568848
1001
MStation
1000
Lnkg
1002
{
1004
1B10970E7600000000408202B220C80275D6EB26131100000000E705D9B7A2060000C0050000000000000000000000000000000011000000
1002
}
  0
LWPOLYLINE
  5
54
330
2
100
AcDbEntity
  8
vender
  6
Continuous
 62
     6
 48
0.5
370
     0
100
AcDbPolyline
 90
        2
 70
   128
 43
0.0
 10
466709.0401640044
 20
6529890.364496435
 10
466709.9411640044
 20
6529889.317496436
1001
MStation
1000
Lnkg
1002
{
1004
1B10970E8025000000408202A524C80214D2EB260D11000000000304D9B70500000000000000000000000000000000000000000041000000
1002
}
  0
LWPOLYLINE
  5
55
330
2
100
AcDbEntity
  8
vender
  6
Continuous
 62
     6
 48
0.5
370
     0
100
AcDbPolyline
 90
        2
 70
   128
 43
0.0
 10
466717.6966646776
 20
6529880.699806453
 10
466718.6256646776
 20
6529879.663806454
1001
MStation
1000
Lnkg
1002
{
1004
1B10970E82250000004082020928C8024FCEEB262111000000000704D9B70500000000000000000000000000000000000000000041000000
1002
}
  0
LWPOLYLINE
  5
56
330
2
100
AcDbEntity
  8
vender
  6
Continuous
 62
     6
 48
0.5
370
     0
100
AcDbPolyline
 90
        2
 70
   128
 43
0.0
 10
466727.9145767933
 20
6529869.306895473
 10
466726.9945767933
 20
6529870.333895472
1001
MStation
1000
Lnkg
1002
{
1004
1B10970E84250000004082024E2BC802AACAEB260F11000000000304D9B70500000000000000000000000000000000000000000041000000
1002
}
  0
LINE
  5
57
330
2
100
AcDbEntity
  8
vender
  6
Continuous
 62
     6
 48
0.5
370
     0
100
AcDbLine
 10
466722.5433949123
 20
6529898.073961735
 30
0.0
 11
466723.1860473674
 21
6529898.651781984
 31
0.0
  0
LINE
  5
58
330
2
100
AcDbEntity
  8
vender
  6
Continuous
 62
     6
 48
0.5
370
     0
100
AcDbLine
 10
466723.3192209827
 20
6529897.21108694
 30
0.0
 11
466723.9618734381
 21
6529897.788907191
 31
0.0
  0
LINE
  5
59
330
2
100
AcDbEntity
  8
vender
  6
Continuous
 62
     6
 48
0.5
370
     0
100
AcDbLine
 10
466709.6660968391
 20
6529912.396109883
 30
0.0
 11
466710.3087492942
 21
6529912.973930131
 31
0.0
  0
LINE
  5
5A
330
2
100
AcDbEntity
  8
vender
  6
Continuous
 62
     6
 48
0.5
370
     0
100
AcDbLine
 10
466710.4451971871
 20
6529911.529593432
 30
0.0
 11
466711.0878496422
 21
6529912.107413682
 31
0.0
  0
LINE
  5
5B
330
2
100
AcDbEntity
  8
vender
  6
Continuous
 62
     6
 48
0.5
370
     0
100
AcDbLine
 10
466714.4609547542
 20
6529907.063262493
 30
0.0
 11
466715.1036072099
 21
6529907.641082742
 31
0.0
  0
LINE
  5
5C
330
2
100
AcDbEntity
  8
vender
  6
Continuous
 62
     6
 48
0.5
370
     0
100
AcDbLine
 10
466715.228219822
 20
6529906.209909259
 30
0.0
 11
466715.8708722774
 21
6529906.787729508
 31
0.0
  0
LINE
  5
5D
330
2
100
AcDbEntity
  8
vender
  6
Continuous
 62
     6
 48
0.5
370
     0
100
AcDbLine
 10
466730.4061095713
 20
6529889.329039971
 30
0.0
 11
466731.0487620265
 21
6529889.90686022
 31
0.0
  0
LINE
  5
5E
330
2
100
AcDbEntity
  8
vender
  6
Continuous
 62
     6
 48
0.5
370
     0
100
AcDbLine
 10
466731.1688287325
 20
6529888.480742697
 30
0.0
 11
466731.8114811879
 21
6529889.058562949
 31
0.0
  0
LINE
  5
5F
330
2
100
AcDbEntity
  8
vender
  6
Continuous
 62
     6
 48
0.5
370
     0
100
AcDbLine
 10
466738.3902929667
 20
6529880.449020514
 30
0.0
 11
466739.0329454219
 21
6529881.026840765
 31
0.0
  0
LINE
  5
60
330
2
100
AcDbEntity
  8
vender
  6
Continuous
 62
     6
 48
0.5
370
     0
100
AcDbLine
 10
466739.1648679864
 20
6529879.58753714
 30
0.0
 11
466739.8075204417
 21
6529880.165357392
 31
0.0
  0
LINE
  5
61
330
2
100
AcDbEntity
  8
vender
  6
Continuous
 62
     6
 48
0.5
370
     0
100
AcDbLine
 10
466710.3087492942
 20
6529912.973930131
 30
0.0
 11
466711.0878496409
 21
6529912.107413683
 31
0.0
  0
LINE
  5
62
330
2
100
AcDbEntity
  8
vender
  6
Continuous
 62
     6
 48
0.5
370
     0
100
AcDbLine
 10
466715.1036072099
 20
6529907.641082742
 30
0.0
 11
466715.8708722775
 21
6529906.787729508
 31
0.0
  0
LINE
  5
63
330
2
100
AcDbEntity
  8
vender
  6
Continuous
 62
     6
 48
0.5
370
     0
100
AcDbLine
 10
466723.1860473674
 20
6529898.651781984
 30
0.0
 11
466723.961873438
 21
6529897.788907191
 31
0.0
  0
LINE
  5
64
330
2
100
AcDbEntity
  8
vender
  6
Continuous
 62
     6
 48
0.5
370
     0
100
AcDbLine
 10
466731.0487620265
 20
6529889.90686022
 30
0.0
 11
466731.8114811872
 21
6529889.058562946
 31
0.0
  0
LINE
  5
65
330
2
100
AcDbEntity
  8
vender
  6
Continuous
 62
     6
 48
0.5
370
     0
100
AcDbLine
 10
466739.0329454219
 20
6529881.026840765
 30
0.0
 11
466739.8075204412
 21
6529880.165357392
 31
0.0
  0
LINE
  5
66
330
2
100
AcDbEntity
  8
vender
  6
Continuous
 62
     6
 48
0.5
370
     0
100
AcDbLine
 10
466746.43127664
 20
6529871.505827713
 30
0.0
 11
466747.0739290951
 21
6529872.083647965
 31
0.0
  0
LINE
  5
67
330
2
100
AcDbEntity
  8
vender
  6
Continuous
 62
     6
 48
0.5
370
     0
100
AcDbLine
 10
466747.2058516597
 20
6529870.644344339
 30
0.0
 11
466747.8485041151
 21
6529871.222164591
 31
0.0
  0
LINE
  5
68
330
2
100
AcDbEntity
  8
vender
  6
Continuous
 62
     6
 48
0.5
370
     0
100
AcDbLine
 10
466747.0739290951
 20
6529872.083647965
 30
0.0
 11
466747.8485041146
 21
6529871.222164591
 31
0.0
  0
ENDSEC
  0
SECTION
  2
OBJECTS
  0
DICTIONARY
  5
A
330
0
100
AcDbDictionary
281
     1
  3
ACAD_COLOR
350
2D
  3
ACAD_GROUP
350
29
  3
ACAD_LAYOUT
350
10
  3
ACAD_MATERIAL
350
2C
  3
ACAD_MLINESTYLE
350
2A
  3
ACAD_PLOTSETTINGS
350
2B
  3
ACAD_PLOTSTYLENAME
350
9
1001
ADE
1000
ADE02C004
1000
[Query]
1000
CaseSensitiveMatch=0
1000
SaveCurrQueryInSession=1
1000
MkSelSetWithQryObj=0
1000
ShowBlockAsInsPt=0
1000
CreateAssociativeHatchObjects=0
1000
ReferenceBoundaryForAreaLocation=1
1000
ShowImageAsBoundary=1
1000
DefaultJoinOperator=2
1000
ColorForAdd=red
1000
ColorForRemove=red
1000
BlockLocnForQuery=1
1000
TextLocnForQuery=1
1000
[Save Back]
1000
RedefineBlockDefinitions=1
1000
RedefineLayerDefinitions=1
1000
RedefineTextStyleDefinitions=1
1000
RemoveUnusedGroups=1
1000
EraseSavedBackObjects=1
1000
RemoveLockAfterSave=1
1000
CreateHistoryFileOfChanges=0
1000
CreateBackupFileOfSourceDwg=1
1000
DontAddObjectsToSaveSet=0
1000
MarkObjectsForEditingWithoutPrompting=0
1000
[Coordinate Transformation]
1000
RestoreLastActiveDwgsOnStartup=1
1000
ActivateDwgsOnAttach=1
1000
AdjustSizesAndScalesForChangesInUnits=1
1000
AdjustRotationsForMapDistortions=1
1000
AdjustSizesAndScalesForMapDistortions=1
1000
AdjustElevations=1
1000
AdjustZeroRotationObjects=1
1000
ReconnectDbOnWSOpen=1
1000
NoOfSQLConditionsInHistory=10
  0
DICTIONARY
  5
18
330
17
100
AcDbDictionary
280
     1
281
     1
  3
ACAD_LAYERFILTERS
360
19
  3
ACAD_LAYERSTATES
360
1A
  0
DICTIONARY
  5
3
330
2
100
AcDbDictionary
280
     1
281
     1
  3
ACAD_LAYOUTSELFREF
360
4
  3
ACAD_SORTENTS
360
5
  0
DICTIONARY
  5
12
330
11
100
AcDbDictionary
280
     1
281
     1
  3
ACAD_LAYOUTSELFREF
360
13
  0
DICTIONARY
  5
2D
102
{ACAD_REACTORS
330
A
102
}
330
A
100
AcDbDictionary
281
     1
  0
DICTIONARY
  5
29
102
{ACAD_REACTORS
330
25
102
}
330
A
100
AcDbDictionary
281
     1
  0
DICTIONARY
  5
10
102
{ACAD_REACTORS
330
A
102
}
330
A
100
AcDbDictionary
281
     1
  3
Layout1
350
16
  3
Model
350
F
  0
DICTIONARY
  5
2C
102
{ACAD_REACTORS
330
A
102
}
330
A
100
AcDbDictionary
281
     1
  0
DICTIONARY
  5
2A
102
{ACAD_REACTORS
330
25
102
}
330
A
100
AcDbDictionary
281
     1
  3
STANDARD
350
30
  0
DICTIONARY
  5
2B
102
{ACAD_REACTORS
330
A
102
}
330
A
100
AcDbDictionary
281
     1
  0
ACDBDICTIONARYWDFLT
  5
9
102
{ACAD_REACTORS
330
A
102
}
330
A
100
AcDbDictionary
281
     1
  3
Normal
350
8
100
AcDbDictionaryWithDefault
340
8
  0
DICTIONARY
  5
19
102
{ACAD_REACTORS
330
18
102
}
330
18
100
AcDbDictionary
281
     1
  0
DICTIONARY
  5
1A
102
{ACAD_REACTORS
330
18
102
}
330
18
100
AcDbDictionary
281
     1
  0
XRECORD
  5
4
102
{ACAD_REACTORS
330
3
102
}
330
3
100
AcDbXrecord
280
     1
340
2
  0
SORTENTSTABLE
  5
5
102
{ACAD_REACTORS
330
3
102
}
330
3
100
AcDbSortentsTable
330
2
  0
XRECORD
  5
13
102
{ACAD_REACTORS
330
12
102
}
330
12
100
AcDbXrecord
280
     1
340
11
  0
LAYOUT
  5
16
102
{ACAD_REACTORS
330
10
102
}
330
10
100
AcDbPlotSettings
  1

  2
C:\Program Files\ACAD2000\plotters\DWF Classic.pc3
  4

  6

 40
0.0
 41
0.0
 42
0.0
 43
0.0
 44
0.0
 45
0.0
 46
0.0
 47
0.0
 48
0.0
 49
0.0
140
0.0
141
0.0
142
1.0
143
1.0
 70
   688
 72
     0
 73
     0
 74
     5
  7
acad_pets.ctb
 75
    16
147
1.0
 76
     0
 77
     2
 78
   300
148
0.0
149
0.0
100
AcDbLayout
  1
Layout1
 70
     1
 71
     1
 10
0.0
 20
0.0
 11
12.0
 21
9.0
 12
0.0
 22
0.0
 32
0.0
 14
1.000000000000000E+20
 24
1.000000000000000E+20
 34
1.000000000000000E+20
 15
-1.000000000000000E+20
 25
-1.000000000000000E+20
 35
-1.000000000000000E+20
146
0.0
 13
0.0
 23
0.0
 33
0.0
 16
1.0
 26
0.0
 36
0.0
 17
0.0
 27
1.0
 37
0.0
 76
     0
330
11
  0
LAYOUT
  5
F
102
{ACAD_REACTORS
330
10
102
}
330
10
100
AcDbPlotSettings
  1

  2
PDF995aaaa.pc3
  4
User137
  6

 40
3.174999952316284
 41
3.174999952316284
 42
3.17498779296875
 43
3.175048828125
 44
899.9000244140624
 45
1244.900024414062
 46
13.01
 47
141.6999999999999
 48
409838.252645189
 49
6533171.596368974
140
410705.7777010331
141
6534126.754727796
142
1.0
143
1.0
 70
 11940
 72
     1
 73
     0
 74
     4
  7
acad_pets.ctb
 75
     0
147
1.0
 76
     0
 77
     2
 78
   300
148
-409838.252645189
149
-6533171.596368974
100
AcDbLayout
  1
Model
 70
     1
 71
     0
 10
0.0
 20
0.0
 11
12.0
 21
9.0
 12
0.0
 22
0.0
 32
0.0
 14
0.0
 24
0.0
 34
0.0
 15
0.0
 25
0.0
 35
0.0
146
0.0
 13
0.0
 23
0.0
 33
0.0
 16
1.0
 26
0.0
 36
0.0
 17
0.0
 27
1.0
 37
0.0
 76
     0
330
2
  0
MLINESTYLE
  5
30
330
2A
100
AcDbMlineStyle
  2
STANDARD
 70
     0
  3

 62
   256
 51
90.0
 52
90.0
 71
     2
 49
0.5
 62
   256
  6
BYLAYER
 49
-0.5
 62
   256
  6
BYLAYER
  0
ACDBPLACEHOLDER
  5
8
102
{ACAD_REACTORS
330
9
102
}
330
9
  0
ENDSEC
  0
EOF
